Oops, an error
Loading. Please wait.

Luna De Agosto Tab

119 views 1 this week
no commentswrite comment
1 2 3 4 5
3 more votes to show rating
add to favorites
launch autoscroll
font size
0
reset
how to read this tab
guitar tuner
×
Best way to learn
"Luna De Agosto"
Autoscroll
slow
fast
+/-
esc
set tempo
stop
Intro: Am, E7, Am

Esta es la parte del teclado?
                                                     E7
e|----12-13-15--12-13-12-10-12-13-12-13--10-12-13-13h1212--|
B|--10-----------------------------------------------------|
G|---------------------------------------------------------|
D|---------------------------------------------------------|
A|---------------------------------------------------------|
E|---------------------------------------------------------|

                                                Am
e|----12-13-15--12-13-12-10-12-13-12-13--8-10-8--------10-8-----|
B|--10------------------------------------------10----------10--|
G|--------------------------------------------------------------|
D|--------------------------------------------------------------|
A|--------------------------------------------------------------|
E|--------------------------------------------------------------|

                    E7                              Am
e|--8-5--7-8-10-8-7----8-5--7-8-10-8-7-----7-8-10-8-5--|
B|------------------5------------------5---------------|
G|-----------------------------------------------------|
D|-----------------------------------------------------|
A|-----------------------------------------------------|
E|-----------------------------------------------------|

                    E7                                  Am
e|--8-5--7-8-10-8-7----8-5--7-8-10-8-7-----7-8-10/12-10-5--|
B|------------------5------------------5-------------------|
G|---------------------------------------------------------|
D|---------------------------------------------------------|
A|---------------------------------------------------------|
E|---------------------------------------------------------|

                           E7                                         Am
e|-12-12-12-10-10-8---10-10-10-8-8-7-10---12-12-12-10-10-8-7-8-10-8-7-5-|
B|----------------------------------------------------------------------|
G|----------------------------------------------------------------------|
D|----------------------------------------------------------------------|
A|----------------------------------------------------------------------|
E|----------------------------------------------------------------------|

                             E7                                        Am
e|-12-12-12-10-10-8-5---10-10-10-8-8-7-10---12-12-12-10-10-8-7-8-10-8-7-5-|
B|------------------------------------------------------------------------|
G|------------------------------------------------------------------------|
D|------------------------------------------------------------------------|
A|------------------------------------------------------------------------|
E|------------------------------------------------------------------------|

                    E7                         Am
e|--8-5--7-8-10-8-7----7-8-10-8-7-----7-8-10-8-5--|
B|------------------5-------------5---------------|
G|------------------------------------------------|
D|------------------------------------------------|
A|------------------------------------------------|
E|------------------------------------------------|

                    E7                             Am
e|--8-5--7-8-10-8-7----7-8-10-8-7-----7-8-10/12-10-5--|
B|------------------5-------------5-------------------|
G|----------------------------------------------------|
D|----------------------------------------------------|
A|----------------------------------------------------|
E|----------------------------------------------------|

                  E7                                    Am         Dm
e|--8-7-8-10-8-7--5-7-8-10-7----7-8-10-12-10-8--7-8-7-8-5--|
B|---------------------------------------------------------|
G|---------------------------------------------------------|
D|---------------------------------------------------------|
A|---------------------------------------------------------|
E|---------------------------------------------------------|

              Am           E7                Am
e|--12-10-8-7-8---10-8-7-5-7---7-8-10---8-10-12--|
B|-----------------------------------------------|
G|-----------------------------------------------|
D|-----------------------------------------------|
A|-----------------------------------------------|
E|-----------------------------------------------|

           Dm            Am          E7                  Am
e|--5-8-12-10--12-10-8-7-8---10-8-7-5-7---7-8-10---8-10-12--|
B|----------------------------------------------------------|
G|----------------------------------------------------------|
D|----------------------------------------------------------|
A|----------------------------------------------------------|
E|----------------------------------------------------------|

           Dm            Am          E7                  Am
e|--5-8-12-10--12-10-8-7-8---10-8-7-5-7---7-8-10---8-10-12--|
B|----------------------------------------------------------|
G|----------------------------------------------------------|
D|----------------------------------------------------------|
A|----------------------------------------------------------|
E|----------------------------------------------------------|

           Dm            Am          E7            Am
e|--5-8-12-10--12-10-8-7-8---10-8-7-5-7---7-8-10---7-8-5--|
B|--------------------------------------------------------|
G|--------------------------------------------------------|
D|--------------------------------------------------------|
A|--------------------------------------------------------|
E|--------------------------------------------------------|

Am, E, Am...
                         E                     Am
e|-------------------------------------------------|
B|---9-15-17-17-14-17-15-12---9-12-15-12-15-13-10--|
G|--9------------------------9---------------------|
D|-------------------------------------------------|
A|-------------------------------------------------|
E|-------------------------------------------------|

                         E                     Am
e|-------------------------------------------------|
B|---9-15-17-17-14-17-15-12---9-12-15-15-13-12-10--|
G|--9------------------------9---------------------|
D|-------------------------------------------------|
A|-------------------------------------------------|
E|-------------------------------------------------|

                                                    E
e|------------------------------------------------------|
B|-----17-18-19--17-18-17--15-17-18-17-18--15-17-18-17--|
G|--14--------------------------------------------------|
D|------------------------------------------------------|
A|------------------------------------------------------|
E|------------------------------------------------------|

                                                              Am
e|---------------------------------------------------------------|
B|----17-18-19--17-18-17--15-17-18-17-18--13-15-13-10---15-13-10-|
G|-14------------------------------------------------------------|
D|---------------------------------------------------------------|
A|---------------------------------------------------------------|
E|---------------------------------------------------------------|

______________________________________________

Este sólo para el teclado es opcional...
Si prefieres tocar éste esta bien,
pero, no es el mismo sonido.

En lo personal prefiero tocar el anterior.
                                                     E
e|----12-13-14--12-13-12---10-12-13-12-13--10-12-13-12--|
B|--10--------------------------------------------------|
G|------------------------------------------------------|
D|------------------------------------------------------|
A|------------------------------------------------------|
E|------------------------------------------------------|

                                                 Am
e|---12-13-14--12-13-12---10-12-13-12-13--8-10-8--------10-8-10----|
B|-10--------------------------------------------10-------------10-|
G|-----------------------------------------------------------------|
D|-----------------------------------------------------------------|
A|-----------------------------------------------------------------|
E|-----------------------------------------------------------------|
_________________________________________________

                    E7                            Am
e|--8-5--7-8-10-8-7----7-8-10/12--10-8-7-8-10-8-7-5--|
B|------------------5--------------------------------|
G|---------------------------------------------------|
D|---------------------------------------------------|
A|---------------------------------------------------|
E|---------------------------------------------------|

                        E7                         Am
e|--87-8--5--7-8-10-8-7----7-8-10-8-7-----7-8-10-8-5--|
B|----------------------5-------------5---------------|
G|----------------------------------------------------|
D|----------------------------------------------------|
A|----------------------------------------------------|
E|----------------------------------------------------|

                             E7                                        Am
e|-12-12-12-10-10-8-5---10-10-10-8-8-7-10---12-12-12-10-10-8-7-8-10-8-7-5-|
B|------------------------------------------------------------------------|
G|------------------------------------------------------------------------|
D|------------------------------------------------------------------------|
A|------------------------------------------------------------------------|
E|------------------------------------------------------------------------|


                          E7                              Am
e|--7-8-7-8-7-8--7-8-10-8-7---7-8-7-8-10-12-10-8-7-8-7-10-5--|
B|-----------------------------------------------------------|
G|-----------------------------------------------------------|
D|-----------------------------------------------------------|
A|-----------------------------------------------------------|
E|-----------------------------------------------------------|

    Dm            Am           E7                Am
e|--10--12-10-8-7-8---10-8-7-5-7---7-8-10---8-10-12--|
B|---------------------------------------------------|
G|---------------------------------------------------|
D|---------------------------------------------------|
A|---------------------------------------------------|
E|---------------------------------------------------|

           Dm            Am          E7                  Am
e|--5-8-12-10--12-10-8-7-8---10-8-7-5-7---7-8-10---8-10-12--|
B|----------------------------------------------------------|
G|----------------------------------------------------------|
D|----------------------------------------------------------|
A|----------------------------------------------------------|
E|----------------------------------------------------------|

           Dm            Am          E7                  Am
e|--5-8-12-10--12-10-8-7-8---10-8-7-5-7---7-8-10---8-10-121212--|
B|--------------------------------------------------------------|
G|--------------------------------------------------------------|
D|--------------------------------------------------------------|
A|--------------------------------------------------------------|
E|--------------------------------------------------------------|

          Dm            Am           E7
e|-5-8-12-10--12-10-8-7-8---10-8-7-5-7---7-8-10---8-10-|
B|-----------------------------------------------------|
G|-----------------------------------------------------|
D|-----------------------------------------------------|
A|-----------------------------------------------------|
E|-----------------------------------------------------|

   Am                   Dm               Am                   E7
e|-12121212121212121212-1313131313131313-141414141414-1212121212121212-|
B|---------------------------------------------------------------------|
G|---------------------------------------------------------------------|
D|---------------------------------------------------------------------|
A|---------------------------------------------------------------------|
E|---------------------------------------------------------------------|

     Am           Dm             Am        E7           Am
e|-131313131313-10101010101010-888888888-101010101010-1212121212121212-|
B|---------------------------------------------------------------------|
G|---------------------------------------------------------------------|
D|---------------------------------------------------------------------|
A|---------------------------------------------------------------------|
E|---------------------------------------------------------------------|


 Que tal a todos, mi nombre es Adrián González Jiménez de la
Ciudad de Oaxaca y espero que les agrade esta rola del maestro
Ottmar Liebert, dudas u opiniones:

 Imordeglo@ y por cierto: Esta canción la dedico a mis
amigos del colegio ?The Cambridge Academy? desde James hasta mis
compañeros de clase (Sòlo a los que conozco), pero sobre todo a
una chica muy especial, en quien me inspiré para sacar esta rola,
 y ella aún no lo sabe...

 Nota: Este tab también pueden encontrarlo en otros sitios,
pero es el mismo tab que transcribí, no hay otro.
Suggest correction
Give kudos to tab author, rate the tab!
1 2 3 4 5
comments
print report bad tab
guest
You may want to rate the tab now too:
select rating
Wanna post a correction for this tab? Suggest correction