Oops, an error
Loading. Please wait.

Wir Haben Grund Zum Feiern Tab

version 1
version 1

Whole song

Interactive

94,913 views 117 this week
6 commentsread comments
1 2 3 4 5
x 6
add to favorites
launch autoscroll
font size
0
reset
how to read this tab
guitar tuner
Autoscroll
slow
fast
+/-
esc
set tempo
stop
Help us to improve Ultimate-Guitar.com Take our survey!
×
Author
Difficulty
novice
Interpret:Otto Waalkes
Titel:Wir haben Grund zum Feiern
Album:-

Tuning:normal
tabbed by HoYa

[Intro]
      G                  D             Am          C
e|---------------3-------------2-------------0--------------0-|
B|------------------0-------3-----3--------1--------------1---|
G|----------0-------------2---------2----2--------------------|
D|----------------------0--------------2--------------2-------|
A|----2--------------------------------------------3----------|
E|--3---------------------------------------------------------|

      D
e|--------2--------------------------------------------------|
B|------3---------3-1-0--------------------------------------|
G|----2---------2--------------------------------------------|
D|--0---------0----------------------------------------------|
A|-----------------------------------------------------------|
E|-----------------------------------------------------------|

At the same time he´s shriekling(pfeift er)
e|-----------------------------------------------------------|
B|-----------------------------------------------------------|
G|-----------------------------------------------------------|
D|-----------0-2-----0-2-0-------0-2-0-----------------------|
A|-------0-3-----0-3-------3-0-3--------3-3-2-3--------------|
E|---3-3-----------------------------------------------------|


[Verse]
     G                            D
Farber Krönung, Deinhart lila,   Grapa Kalpadus Tequilla.
  Am                              C
Asbach Uralt  Spätburgunder,    Vehrmut und Pernot

            G            D
Williams Birne Dujardin,  Hennessy Remy Martin
      Am                  C
Fernet Branca Underberg,  Portwein und Bordeaux

     G                       D
Johnny Walker Jägermeister,  Amaretto Kellergeister,
       Am                    C
Scharlachberg und Doppelkorn.  das ganze jetzt nochmal von vorn,


[Refrain]
 G                 D
Wir haben Grund zum Feiern
    Am                   C
Keiner kann mehr laufen, doch wir könn(en) noch saufen
G                   D
Wir haben Grund zum Feiern
        Am            C
Ist uns auch speiübel bring den nächsten Kübel

Play it like The first Verse and Refrain

Bommerlunder Valentines,  heute ist uns alles eins
Birnenschnapps und Apfelwein,  wir tun wirklich alles rein


[Bridge]
          C
Whiskey süß und Whiskey sauer,  hauptsache wir werden blauer
Ramazotti,Razeputz und ne Pulle Rum
Gin Campari Grand Marnier,  endlich tut der Schädel weh
Mit Dornkat und Mariakron ins Delirium
Klosterfraumelissengeist oder wie der Stoff sonst heißt
Kölnischwasser Pitralon, wir rülpsen nicht wir kotzen schon

Wir haben Grund zum Reiern,
Zerfrisst uns auch die Därme schenkt es uns doch Wärme,
Wir haben Grund zum
Feiern,                                                                           G
unser letzter Wille immer mehr Promille Promille Promille mille mille.mille....
Suggest correction
comments
print report bad tab
6 comments total. Showing first comments.
0 reply
dEipHoBoS 155 Jul 12, 2007 04:42 AM

heißt eigentlich "hymne an den alkohol"

+1 reply
JFreak85 51 Aug 09, 2007 07:48 AM

ich hab nen fehler gefunden:

die verse und Refrain gehen so:

G - D - E - C

das ganze wird mit poweraccs gespielt. nur der allerletzte akkord(G) wird normal angeschlagen. ich habe mir das video angeschaut und es nachgespielt. ich bin mir 100% sicha das es G,D,E,C ist!

0 reply
RalpH_himself 190 Jan 01, 2012 04:03 PM

Em statt E für alle die Powerchords nicht mögen.

guest
You may want to rate the tab now too:
select rating
Wanna post a correction for this tab? Suggest correction