Oops, an error
Loading. Please wait.

Wir Haben Grund Zum Feiern Tab

version 2
version 2

Whole song

Interactive

66,946 views 33 this week
4 commentsread comments
1 2 3 4 5
x 19
add to favorites
launch autoscroll
font size
0
reset
how to read this tab
guitar tuner
Autoscroll
slow
fast
+/-
esc
set tempo
stop
Help us to improve Ultimate-Guitar.com Take our survey!
×
Author
Difficulty
novice
Interpret: Otto Waalkes
Titel: Hymne an den Alkohol


PM= Palm Muted  (Gedämpft)
U = Up Stroke   (Aufschlag)
D = Down Stroke (Abschlag)


    G                   D                   E                   C
      pm    pm    pm      pm    pm    pm      pm    pm    pm      pm    pm    pm
e|---------------------------------------------------------------------------------|
B|---------------------------------------------------------------------------------|
G|----------------------7-------------------9-------------------5------------------|
D|--5-------------------7-7-7-7-7-7-7-7-7---9-9-9-9-9-9-9-9-9---5-5-5-5-5-5-5-5-5--|
A|--5-5-5-5-5-5-5-5-5---5-5-5-5-5-5-5-5-5---7-7-7-7-7-7-7-7-7---3-3-3-3-3-3-3-3-3--|
E|--3-3-3-3-3-3-3-3-3--------------------------------------------------------------|

Vers 1:
G                              D
Farber Krönung, Deinhart lila, Grapa Kalpadus Tequilla.
E                            C
Asbach Uralt, Spätburgunder, Vehrmut und Pernot

G                         D
Williams Birne, Dujardin, Hennessy Remy Martin
E                        C
Fernet Branca Underberg, Portwein und Bordeaux

G                            D
Johnny Walker, Jägermeister, Amaretto Kellergeister,
E                             C
Scharlachberg und Doppelkorn, und das ganze jetzt nochmal von vorn:


Refrain:
    D    U D U    U    D    U D U    U    D    U D U    U    D    U D U    U
e|----------------------------------------------------------------------------|
B|----------------------------------------------------------------------------|
G|---------------------7--x-7-7-7--x-7----9--x-9-9-9--x-9----5--x-5-5-5--x-5--|
D|--5--x-5-5-5--x-5----7--x-7-7-7--x-7----9--x-9-9-9--x-9----5--x-5-5-5--x-5--|
A|--5--x-5-5-5--x-5----5--x-5-5-5--x-5----7--x-7-7-7--x-7----3--x-3-3-3--x-3--|
E|--3--x-3-3-3--x-3-----------------------------------------------------------|

G                   D              E                          C
Wir haben Grund zum Feiern, Keiner kann mehr laufen, doch wir könn' noch saufen
G                   D               E              C
Wir haben Grund zum Feiern, Ist uns auch speiübel, bring den nächsten Kübel


Vers 2:
G                         D
Bommerlunder Valentines,  heute ist uns alles eins,
E                              C
Birnenschnapps und Apfelwein,  wir tun wirklich alles rein

Bridge:
C


Vers 3:
G                               D
Whiskey süß und Whiskey sauer,  Hauptsache wir werden blauer,
E                               C
Ramazotti,Razeputz und ne Budel Rum

G                           D
Gin Campari Grand Marnier,  endlich tut der Schädel weh,
E                              C
Mit Dornkat und Mariakron ins Delirium

G                        D
Klosterfraumelissengeist oder wie der Stoff sonst heißt,
E                              C
Kölnischwasser, Pitralon, wir rülpsen nicht wir kotzen schon!


Refrain:
G                   D       E                                       C
Wir haben Grund zum Reiern, zerfrisst uns auch die Därme schenkt es uns doch Wärme,
G                   D       E                          C                                 
                         G...
Wir haben Grund zum Feiern, unser letzter Wille immer mehr Promille, Promille, Promille, 
mille, mille....
Suggest correction
comments
print report bad tab
4 comments total. Showing first comments.
+2 reply
Osen 154 Aug 17, 2008 09:27 AM

bisher die einzig wahre version die ich gesehen hab! perfekt!
allerdings ist das nicht E sonder E5.
Klingt auch sehr gut wenn man G - D/A - E5/H - C/G spielt...
also so:
G D/A E5/H C/G
|---------------------------------|
|---------------------------------|
|---------------------------------|
|-5-5-5-5-7-7-7-7-9-9-9-9-5-5-5-5-|
|-5-5-5-5-5-5-5-5-7-7-7-7-3-3-3-3-|
|-3-3-3-3-5-5-5-5-7-7-7-7-3-3-3-3-|
ich find das gibt irgendwie mehr fülle...

0 reply
namlezz 75 Apr 10, 2009 04:42 PM

super der Tab^^
wie geil is das denn hätt nie gedacht das ich das lied hier find XD

so jez hab ich was lustiges zum spielen :D:D:D

0 reply
dErRiNkE 172 Feb 12, 2015 05:21 AM

Heyho, ich glaube die Bridge (nach dem ersten Refrain) ist C A E D, zumindestens kam mir das nach hören der originalaufnahme so vor.

C A
Bommerlunder, Valentines, heute ist uns alles eins,
E D E A E A
Birnenschnaps und Apfelwein, wir tun wirklich alles rein.

Ansonsten großartig :) Vielen Dank für die Mühe!

guest
You may want to rate the tab now too:
select rating
Wanna post a correction for this tab? Suggest correction