Oops, an error
Loading. Please wait.

Drink Up Tab

version 1
version 1

Whole song

Interactive

1,696 views 1 this week
2 commentsread comments
1 2 3 4 5
accurate
x 4
add to favorites
launch autoscroll
font size
0
reset
how to read this tab
guitar tuner
Tab Pro tools
  • play this tab
  • loop segment
  • change instrument
  • show fretboard
  • metronome
Autoscroll
slow
fast
+/-
esc
set tempo
stop
Contributor
Difficulty
Tuning
novice
D A D G B E
Drink Up - Ounce of Self
As tabbed by DRX
Drop D tuning

All but the solo; That's a crazy piece of work

Intro
----------------------------------------------|
----------------------------------------------|
----------------------------------------------|
----------------------------------------------|
----------------------------------------------|
-10///----------------------------------------|

----------------------------------------------|
----------------------------------------------|
----------------------------------------------|
---------3-0----------------------------------|
---5p3p0-------------5------------------------|
-0----------7-6p5p0-7-6-----------------------| X 3

----------------------------------------------|
----------------------------------------------|
----------------------------------------------|
----------15-12~------------------------------|
--17p15-12---------------5--------------------|
-0---------------7-6p5p0-7-6------------------|

----------------------------------------------|
----------------------------------------------|
----------------------------------------------|
----------------------------------------------|
----------------0-----------------------------|
-7777666655~-55-0-----------------------------|
-xxxxxxxx


Verse
----------------------------------------------|
----------------------------------------------|
----------------------------------------------|
----------------------------------------------|
-0-0-3/5-5-55-3--0-0-3/5-0-0-3/5--------------|
-0-0-3/5-5-55-3--0-0-3/5-0-0-3/5--------------|

Chorus
----------------------------------------------|
----------------------------------------------|
----------------------------------------------|
----------------------------------------------|
--------2-----3-----5---5---------------------|
-0-0-3/5---3/5---3/5-----6--------------------|
-x-x

----------------------------------------------|
----------------------------------------------|
----------------------------------------------|
--------------------------5-------------------|
--------2-----3-----5---5---------------------|
-0-0-3/5---3/5---3/5--------------------------|
-x-x

[DRX] ~ "So Drink Up! DRINK UP! OH YEAH!"
comments
print report bad tab
2 comments total.
0 reply
dirka_monkey wrote on September 15 2007, 04:14 am

get the whole song or dont post it but thanks for trying anyway

0 reply
dark_bard wrote on September 20 2007, 03:24 am

thanks for posting this much, five stars.... i cant blame you for not having that solo... but apparentley that jackass can

I want to post or [tab]
guest
You may want to rate the tab now too:
select rating
Please do not post tabs as comments. Select "correction" instead!