Oops, an error
Loading. Please wait.

All You Did Was Save My Life bass

version 2
version 2

Whole song

Interactive

519 views 1 this week
no commentswrite comment
1 2 3 4 5
2 more votes to show rating
add to favorites
×
Save as Personal and add changes to this tab that will be seen only by you. Learn more ›
×
You can save this tab as Personal to edit and correct it or add notes. All changes will be seen only by you. Learn more »
launch autoscroll
font size
0
reset
guitar tuner
edit
Autoscroll
slow
fast
+/-
esc
set tempo
stop
---------------------------------------------------------------------
           All You Did Was Save My Life - Our Lady Peace
---------------------------------------------------------------------
Tabbed by: M.J. Nash (the99thaisle), 07/23/09
Tuning: Half Step Down

Verse 1 [Bass comes in at 0:17]
Gb:|-------------------------------|
Db:|-----------------------------/-|
Ab:|-------------------------------|
Eb:|-------------------------------|
     1   &   2   &   3   &   4   &  

Gb:|-------------------------------|------------------------12-----|
Db:/10--10--10--10.----------------|---/10--10.--------/10---------|
Ab:|-------------------------------|----------------------------10-|
Eb:|-------------------------------|-------------------------------|
     1   &   2   &   3   &   4   &   1   &   2   &   3   &   4   & 

Gb:|-------------------------------|------------------------12-----|
Db:|-9---9---9---9.----------------|----/9---9.---------/9---------|
Ab:|-------------------------------|----------------------------10-|
Eb:|-------------------------------|-------------------------------|
     1   &   2   &   3   &   4   &   1   &   2   &   3   &   4   & 

Gb:|-------------------------------|------------------------12-----|
Db:|-------------------------------|-------------------------------|
Ab:|12--12--12--12.----------------|---/12--12.--------/12---------|
Eb:|-------------------------------|----------------------------10-|
     1   &   2   &   3   &   4   &   1   &   2   &   3   &   4   & 

Gb:|-------------------------------|-------------------------------|
Db:|-------------------------------|-------------------------------|
Ab:|-8---8---8---8.------8---8-----|----10--10--10--10-------------|
Eb:|-------------------------------|------------------------10\----|
     1   &   2   &   3   &   4   &   1   &   2   &   3   &   4   & 

Gb:|-------------------------------|-------------------------------|
Db:|-------------------------------|-------------------------------|
Ab:|-------------------------------|-------------------------------|
Eb:|-1-----------1-------0---1-----|-----3-------3---3---3---3-----|
     1   &   2   &   3   &   4   &   1   &   2   &   3   &   4   & 

Chorus 1 [0:33]
Gb:|-------------------------------|-------------------------------|
Db:|-------------------------------|-------------------------------|
Ab:|-3---3---3---3---3---3---3---3-|-3---3---3---3---3---3---3---3-|
Eb:|-------------------------------|-------------------------------|
     1   &   2   &   3   &   4   &   1   &   2   &   3   &   4   & 

Gb:|-------------------------------|-------------------------------|
Db:|-------------------------------|-------------------------------|
Ab:|-2---2---2---2---2---2---2---2-|-2---2---2---2---2---3---2-----|
Eb:|-------------------------------|-----------------------------3-|
     1   &   2   &   3   &   4   &   1   &   2   &   3   &   4   & 

Gb:|-------------------------------|-------------------------------|
Db:|-------------------------------|-------------------------------|
Ab:|-0---0---0---0---0---0---0---0-|-0---0---0---0---2---3---2-----|
Eb:|-------------------------------|-----------------------------3-|
     1   &   2   &   3   &   4   &   1   &   2   &   3   &   4   & 

Gb:|-------------------------------|-------------------------------|
Db:|-------------3-----------------|-------------------------------|
Ab:|-------------------------------|---/10------10--10--10---------|
Eb:|-1-------------------1---1-----|------------------------10\----|
     1   &   2   &   3   &   4   &   1   &   2   &   3   &   4   & 

Gb:|-------------------------------|-------------------------------|
Db:|-------------------------------|-------------------------------|
Ab:|-3---3---3---3---3---3---3---3-|-3---3---3---3---2---3---2-----|
Eb:|-------------------------------|-----------------------------3-|
     1   &   2   &   3   &   4   &   1   &   2   &   3   &   4   & 

Gb:|-------------------------------|-----2---2---4---4---5---5-----|
Db:|-------------------------------|----------------------------(5)|
Ab:|-------------------------------|-------------------------------|
Eb:|-0---0---0---0---0---0---0---0-|-0-----------------------------|
     1   &   2   &   3   &   4   &   1   &   2   &   3   &   4   & 

Gb:|-------------------------------|-------------------------------|
Db:|-------------------------------|-------------------------------|
Ab:|-0---0---0---0---0---0---0-----|-0---0---0-------0---2---3-----|
Eb:|-----------------------------3-|-------------3---------------3-|
     1   &   2   &   3   &   4   &   1   &   2   &   3   &   4   & 

Gb:|-------------------------------|-------------------------------|
Db:|-------------------------------|-----------------------------/-|
Ab:|-------------------------------|-------------------------------|
Eb:|-1---1---1---1---1---1---1---1-|-3---3---3---0---3---3---3-----|
     1   &   2   &   3   &   4   &   1   &   2   &   3   &   4   & 

Pre-Verse 2 [1:00]
Gb:|-------------------------------|------------------------12-----|
Db:/10--10--10--10.----------------|---/10--10.--------/10---------|
Ab:|-------------------------------|----------------------------10-|
Eb:|-------------------------------|-------------------------------|
     1   &   2   &   3   &   4   &   1   &   2   &   3   &   4   & 

Gb:|-------------------------------|------------------------12-----|
Db:|-9---9---9---9.----------------|----/9---9.---------/9---------|
Ab:|-------------------------------|----------------------------10/|
Eb:|-------------------------------|-------------------------------|
     1   &   2   &   3   &   4   &   1   &   2   &   3   &   4   & 

Gb:|-------------------------------|------------------------12-----|
Db:|-------------------------------|-------------------------------|
Ab:/12--12--12--12.----------------|---/12--12.--------/12---------|
Eb:|-------------------------------|----------------------------10-|
     1   &   2   &   3   &   4   &   1   &   2   &   3   &   4   & 

Gb:|-------------------------------|-------------------------------|
Db:|--------------------10---------|-------------------------------|
Ab:|-8---8---8---8.----------8-----|---/10--10--10--10--10---------|
Eb:|-----------------------------0-|------------------------10\----|
     1   &   2   &   3   &   4   &   1   &   2   &   3   &   4   & 

Verse 2 [1:13]
Gb:|-------------------------------|-------------------------------|
Db:|-------------------------------|-------------------------------|
Ab:|-3---3---3---3---3---3---3---3-|-3---3---3---3---3---3---3---3-|
Eb:|-------------------------------|-------------------------------|
     1   &   2   &   3   &   4   &   1   &   2   &   3   &   4   & 

Gb:|-------------------------------|-------------------------------|
Db:|-------------------------------|-------------------------------|
Ab:|-2---2---2---2---2---2---2---2-|-2---2---2---2---2---3---2-----|
Eb:|-------------------------------|-----------------------------3-|
     1   &   2   &   3   &   4   &   1   &   2   &   3   &   4   & 

Gb:|-------------------------------|-------------------------------|
Db:|-------------------------------|-------------------------------|
Ab:|-0---0---0---0---0---0---0---0-|-0---0---0---0---2---3---2-----|
Eb:|-------------------------------|-----------------------------3-|
     1   &   2   &   3   &   4   &   1   &   2   &   3   &   4   & 

Gb:|-------------------------------|-------------------------------|
Db:|---------3---------------------|---------5---------------------|
Ab:|-------------------------------|-------------------------3/----|
Eb:|-1---1-------1---1---1---1---1-|-3---3-------1---3---3---------|
     1   &   2   &   3   &   4   &   1   &   2   &   3   &   4   & 

Gb:|-------------------------------|------------------------12-----|
Db:/10--10--10--10--10--10--10-----/10--10--10--10--10--10---------|
Ab:|-------------------------------|----------------------------10-|
Eb:|-------------------------------|-------------------------------|
     1   &   2   &   3   &   4   &   1   &   2   &   3   &   4   & 

Gb:|-------------------------------|------------------------12-----|
Db:|-9---9---9---9---9---9---9-----|/9---9---9---9---9---9---------|
Ab:|-------------------------------|----------------------------10-|
Eb:|-------------------------------|-------------------------------|
     1   &   2   &   3   &   4   &   1   &   2   &   3   &   4   & 

Gb:|-------------------------------|------------------------12-----|
Db:|-------------------------------|-------------------------------|
Ab:|12--12--12--12--12--12--12-----/12--12--12--12--12--12---------|
Eb:|-------------------------------|----------------------------10-|
     1   &   2   &   3   &   4   &   1   &   2   &   3   &   4   & 

Gb:|-------------------------------|-------------------------------|
Db:|-------------------------------|-------------------------------|
Ab:|-8---8---8---8---8---8---8-----|10--10--10--10--10--10---------|
Eb:|-----------------------------8-|------------------------10\----|
     1   &   2   &   3   &   4   &   1   &   2   &   3   &   4   & 

Gb:|-------------------------------|-------------------------------|
Db:|-------------------------------|-------------------------------|
Ab:|-------------------------------|-------------------------------|
Eb:|-1-----------1-------0---1-----|-----3-------3---3---3---3---3-|
     1   &   2   &   3   &   4   &   1   &   2   &   3   &   4   & 

Chorus 2 [1:43]
Gb:|-------------------------------|-------------------------------|
Db:|-------------------------------|-------------------------------|
Ab:|-3---3---3---3---3---3---3---3-|-3---3---3---3---3---3---3---3-|
Eb:|-------------------------------|-------------------------------|
     1   &   2   &   3   &   4   &   1   &   2   &   3   &   4   & 

Gb:|-------------------------------|-------------------------------|
Db:|-------------------------------|-------------------------------|
Ab:|-2---2---2---2---2---2---2---2-|-2---2---2---2---2---3---2-----|
Eb:|-------------------------------|-----------------------------3-|
     1   &   2   &   3   &   4   &   1   &   2   &   3   &   4   & 

Gb:|-------------------------------|-----2---2---4---4---5---5---0-|
Db:|-------------------------------|-------------------------------|
Ab:|-0---0---0---0---0---0---0---0-|-0-----------------------------|
Eb:|-------------------------------|-------------------------------|
     1   &   2   &   3   &   4   &   1   &   2   &   3   &   4   & 

Gb:|-------------------------------|-------------------------------|
Db:|-------------3-----------------|------------12--12-------------|
Ab:|-------------------------------|----10------------------10\----|
Eb:|-1-------------------1---1-----|-------------------------------|
     1   &   2   &   3   &   4   &   1   &   2   &   3   &   4   & 

Gb:|-------------------------------|-------------------------------|
Db:|-------------------------------|-------------------------------|
Ab:|-3---3---3---3---3---3---3---3-|-3---3---3---3---3---3---3---3-|
Eb:|-------------------------------|-------------------------------|
     1   &   2   &   3   &   4   &   1   &   2   &   3   &   4   & 

Gb:|-------------------------------|-----2---2---4---4---5---5-----|
Db:|-------------------------------|----------------------------(5)|
Ab:|-------------------------------|-------------------------------|
Eb:|-0---0---0---0---0---0---0---0-|-0-----------------------------|
     1   &   2   &   3   &   4   &   1   &   2   &   3   &   4   & 

Gb:|-------------------------------|-------------------------------|
Db:|-------------------------------|-------------------------------|
Ab:|-0---0---0---0---0---0---0-----|-0---0---0-------0---2---3-----|
Eb:|-----------------------------3-|-------------3---------------3-|
     1   &   2   &   3   &   4   &   1   &   2   &   3   &   4   & 

Gb:|-------------------------------|-------------------------------|
Db:|-------------------------------|-------------------------------|
Ab:|-------------------------------|-------------------------------|
Eb:|-1---1---1---1---1---1---1---1-|-3---3---3---0---3---3---3---3-|
     1   &   2   &   3   &   4   &   1   &   2   &   3   &   4   & 

Bridge [2:10]
Gb:|-------------------------------|-------------------------------|
Db:|-------------------------------|-----------------------------/-|
Ab:|-0---0---0---0---0---0---0---0-|-0---0---0---0---0---0---0-----|
Eb:|-------------------------------|-------------------------------|
     1   &   2   &   3   &   4   &   1   &   2   &   3   &   4   & 

Gb:|-------------------------------|-------------------------------|
Db:|/3---3---3---3---3---3---3---3-|-3---3---3---3---2---3---2-----|
Ab:|-------------------------------|-------------------------------|
Eb:|-------------------------------|-----------------------------3-|
     1   &   2   &   3   &   4   &   1   &   2   &   3   &   4   &

Gb:|-------------------------------|-------------------------------|
Db:|-------------------------------|-------------------------------|
Ab:|-3---3---3---3---3---3---3---3-|-3---3---3---3---2---3---2-----|
Eb:|-------------------------------|-----------------------------0-|
     1   &   2   &   3   &   4   &   1   &   2   &   3   &   4   & 

Gb:|-------------------------------|-------------------------------|
Db:|-------------------------------|-------------------------------|
Ab:|-------------------------------|---/10--10--10--10--10--10--10-|
Eb:|-3---3---3---3---3---3---3---3-|-3-----------------------------|
     1   &   2   &   3   &   4   &   1   &   2   &   3   &   4   & 

Gb:|-------------------------------|-------------------------------|
Db:|-------------------------------|-----------------------------/-|
Ab:|-0---0---0---0---0---0---0---0-|-0---0---0---0---0---0---0-----|
Eb:|-------------------------------|-------------------------------|
     1   &   2   &   3   &   4   &   1   &   2   &   3   &   4   & 

Gb:|-------------------------------|-------------------------------|
Db:|/3---3---3---3---3---3---3---3-|-3---3---3---3---3---2---3-----|
Ab:|-------------------------------|-------------------------------|
Eb:|-------------------------------|-----------------------------3-|
     1   &   2   &   3   &   4   &   1   &   2   &   3   &   4   &

Gb:|-------------------------------|-------------------------------|
Db:|-------------------------------|-------------------------------|
Ab:|-3---3---3---3---3---3---3---3-|-3---3---3---3---5---3---2---3-|
Eb:|-------------------------------|-------------------------------|
     1   &   2   &   3   &   4   &   1   &   2   &   3   &   4   &

Gb:|-------------------------------|-------------------------------|
Db:|-------------------------------|-------------------------------|
Ab:|-------------------------------|-------------------------------|
Eb:|-3---3---3---0---3---3---3---3-|-3---3---3---0---3---3---3---3-|
     1   &   2   &   3   &   4   &   1   &   2   &   3   &   4   & 

Verse 3 [2:37]
Gb:|-------------------------------|-------------------------------|
Db:|-------------------------------|-------------------------------|
Ab:|-3-----------------------------|-------------------------------|
Eb:|-------------------------------|-------------------------------|
     1   &   2   &   3   &   4   &   1   &   2   &   3   &   4   & 

Gb:|-------------------------------|-------------------------------|
Db:|-------------------------------|-------------------------------|
Ab:|-2-----------------------------|-------------------------------|
Eb:|-------------------------------|-------------------------------|
     1   &   2   &   3   &   4   &   1   &   2   &   3   &   4   &

Gb:|-------------------------------|-------------------------------|
Db:|-------------------------------|-------------------------------|
Ab:|-0-----------------------------|-------------------------------|
Eb:|-------------------------------|-----------------------------\-|
     1   &   2   &   3   &   4   &   1   &   2   &   3   &   4   & 

Gb:|-------------------------------|-------------------------------|
Db:|-------------------------3-----|-------------------------------|
Ab:|-------------------------------|-------------------------------|
Eb:|-1-----------1-----------------|-----3-----------3-------3-----|
     1   &   2   &   3   &   4   &   1   &   2   &   3   &   4   & 

Chorus 3 [2:50]
Gb:|-------------------------------|-------------------------------|
Db:|-------------------------------|-------------------------------|
Ab:|-3---3---3---3---3---3---3---3-|-3---3---3---3---3---3---3---3-|
Eb:|-------------------------------|-------------------------------|
     1   &   2   &   3   &   4   &   1   &   2   &   3   &   4   & 

Gb:|-------------------------------|-------------------------------|
Db:|-------------------------------|-------------------------------|
Ab:|-2---2---2---2---2---2---2---2-|-2---2---2---2---2---3---2-----|
Eb:|-------------------------------|-----------------------------3-|
     1   &   2   &   3   &   4   &   1   &   2   &   3   &   4   & 

Gb:|-------------------------------|-----2---2---4---4---5---5---0-|
Db:|-------------------------------|-------------------------------|
Ab:|-0---0---0---0---0---0---0---0-|-0-----------------------------|
Eb:|-------------------------------|-------------------------------|
     1   &   2   &   3   &   4   &   1   &   2   &   3   &   4   & 

Gb:|-------------------------------|-------------------------------|
Db:|-------------3-----------------|-------------------------------|
Ab:|-------------------------------|-------------------------------|
Eb:|-1-------------------1---1-----|-----3-------0---3------(7)\---|
     1   &   2   &   3   &   4   &   1   &   2   &   3   &   4   & 

Gb:|-------------------------------|-------------------------------|
Db:|-------------------------------|-------------------------------|
Ab:|-3---3---3---3---3---3---3---3-|-3---3---3---3---2---3---2-----|
Eb:|-------------------------------|-----------------------------3-|
     1   &   2   &   3   &   4   &   1   &   2   &   3   &   4   & 

Gb:|-------------------------------|-----2---2---4---4---5---5-----|
Db:|-------------------------------|----------------------------(5)|
Ab:|-------------------------------|-------------------------------|
Eb:|-0---0---0---0---0---0---0---0-|-0-----------------------------|
     1   &   2   &   3   &   4   &   1   &   2   &   3   &   4   & 

Gb:|-------------------------------|-------------------------------|
Db:|-------------------------------|-------------------------------|
Ab:|-0---0---0---0---0---0---0-----|-0---0---0-------0---2---3-----|
Eb:|-----------------------------3-|-------------3---------------3-|
     1   &   2   &   3   &   4   &   1   &   2   &   3   &   4   & 

Gb:|-------------------------------|-------------------------------|
Db:|-------------------------------|-------------------------------|
Ab:|-------------------------------|-------------------------------|
Eb:|-1---1---1---1---1---1---1---1-|-3---3---3---0---3---3---3---3-|
     1   &   2   &   3   &   4   &   1   &   2   &   3   &   4   & 

Gb:|-------------------------------|-------------------------------|
Db:|-------------------------------|-------------------------------|
Ab:|-3---3---3---3---3---3---3---3-|-3---3---3---3---2---3---2-----|
Eb:|-------------------------------|-----------------------------3/|
     1   &   2   &   3   &   4   &   1   &   2   &   3   &   4   &

Gb:|-------------------------------|-------------------------------|
Db:|-------------------------------|-------------------------------|
Ab:/10--10--10--10--10--10--10--10-|10--10--10--10--10--10---------|
Eb:|-------------------------------|------------------------10\----|
     1   &   2   &   3   &   4   &   1   &   2   &   3   &   4   & 

Gb:|-------------------------------|---------------------7---9\----|
Db:|-------------------------------|-------------7---7-------------|
Ab:|-0---0---0---0---0---0---0---0-|-0---0---0---------------------|
Eb:|-------------------------------|-------------------------------|
     1   &   2   &   3   &   4   &   1   &   2   &   3   &   4   & 

Gb:|-------------------------------|-------------------------------|
Db:|-------------------------------|-------------------------------|
Ab:|-------------------------------|-------------------------------|
Eb:|-1---1---1---1---1---1---1---1-|-3---3---3---0---3---3---3---3-|
     1   &   2   &   3   &   4   &   1   &   2   &   3   &   4   &

Gb:|-------------------------------|-------------------------------|
Db:|-------------------------------|-------------------------------|
Ab:|-3---3---3---3---3---3---3---3-|-3---3---3---3---3---3---3---3-|
Eb:|-------------------------------|-------------------------------|
     1   &   2   &   3   &   4   &   1   &   2   &   3   &   4   &

Gb:|-------------------------------|-------------------------------|
Db:|-5---5---5---5---5---5---5---5-|-5---3---3---2---2---0---0-----|
Ab:|-------------------------------|-----------------------------3-|
Eb:|-------------------------------|-------------------------------|
     1   &   2   &   3   &   4   &   1   &   2   &   3   &   4   & 

Gb:|-------------------------------|-------------------------------|
Db:|-------------------------------|----------------/7---7---7\----|
Ab:|-0---0---0---0---0---0---0---0-|-0-------0---------------------|
Eb:|-------------------------------|-----3-------------------------|
     1   &   2   &   3   &   4   &   1   &   2   &   3   &   4   & 

Gb:|-------------------------------|-------------------------------|
Db:|-------------------------------|-------------------------------|
Ab:|-------------------------------|-------------------------------|
Eb:|-1-----------------------------|-------------------------------|
     1   &   2   &   3   &   4   &   1   &   2   &   3   &   4   &

Please rate, and enjoy!  - the99thaisle
Suggest correction
Creating personal tab
Creating personal tab
You can edit any tab online and save it as your Personal.

You can edit, replace or remove any tab part or add personal notes – all changes will be seen only by you.

Personal tabs can be accessed anytime from any device, even offline.
Learn more »
Give kudos to tab author, rate the tab!
1 2 3 4 5
comments
print report bad tab
guest
You may want to rate the tab now too:
select rating
Wanna post a correction for this tab? Suggest correction