Oops, an error
Loading. Please wait.

Car Crash bass

version 1
version 1

Whole song

Interactive

758 views 3 this week
3 commentsread comments
1 2 3 4 5
x 5
add to favorites
×
Save as Personal and add changes to this tab that will be seen only by you. Learn more ›
×
You can save this tab as Personal to edit and correct it or add notes. All changes will be seen only by you. Learn more »
launch autoscroll
font size
0
reset
guitar tuner
edit
Autoscroll
slow
fast
+/-
esc
set tempo
stop
Song: Car Crash
Artist: Our Lady Peace
Album: Clumsy
Tabbed by: me. L.A.

Tune E string down to D
4(\)6 = slide up to 6 but still strike the string to produce sound

Verse and Intro
G|-------------------------------|
D|-------------------------------|
A|-------------------------------|
D|-00000-8/999-888-222222-111111-|

"But oooh-ohhh..."
G|-------------------|---------------|
D|-------------------|---------------|
A|-------------------|---------------|
D|-444444(/)666666-6-|-444444444-666-|

"It's more than I can bear..."
G|---------------------------------------------------|
D|---------------------------------------------------|
A|---------------------------------------------------|
D|-0-000-0-0-0--6-666-6-6-6--7-777-7-7-7\4-444-4-4-4-|

Interlude (loud part at around 1:40 into the song)
G|-------------------------|
D|-------------------------|
A|-------2-222-------------|
D|-1-111-------6-666-6-666-|

2nd Interlude (after 1st interlude is played for a second time in the song)
G|------------------------|
D|------------------------|
A|-7-444-2-------------77-|
D|---------222-2/444-4----|

Questions, comments, gratuitous praise? dumbassLA@users.basstabarchive.com

            
            
Suggest correction
Creating personal tab
Creating personal tab
You can edit any tab online and save it as your Personal.

You can edit, replace or remove any tab part or add personal notes – all changes will be seen only by you.

Personal tabs can be accessed anytime from any device, even offline.
Learn more »
comments
print report bad tab
3 comments total.
0 reply
LaurentMontreal 596 Jun 24, 2008 04:14 PM

Very good tab, but the tuning is not correct, you must drop your E chord to C#. Still, all the notes in the intro are good, except for the 0. It sould go like
C#|-0-0-0-0-0-9/10-10-10-9-9-9-3-3-3-3-3-3-2-2-2-2-2-2-|
And it's 10, not 1 and 0.

Other than that, it's an amazing tab, thanks for sharing.

-1 reply
happyman1990 10 Feb 04, 2009 04:42 PM

OLP doesnt play ing drop C...

0 reply
JimBonJovi 830 May 21, 2011 03:16 PM

Bass can be tuned differently than the guitars don't you know. This is drop C# because of the low open bass notes.

guest
Wanna post a correction for this tab? Suggest correction