Oops, an error
Loading. Please wait.

Innocent Tab

version 1
version 1

Whole song

Interactive

18,698 views 12 this week
3 commentsread comments
1 2 3 4 5
x 14
add to favorites
launch autoscroll
font size
0
reset
how to read this tab
guitar tuner
×
Best way to learn
"Innocent"
Autoscroll
slow
fast
+/-
esc
set tempo
stop
Extreme Rock Tabs!

Artist: Our Lady Peace
Album: Gravity
Song: Innocent

If You Would Like The Drum Tabs For This Song E-mail Me At sharkie51090@hotmail.com

Intro/Verse
e----------------------------------------------------------------------------|
B—---------------------------------------------------------------------------|
G--66-66-66-66--1313-1313-1313-1315--1111-1111-1111-1111-1515-1515-1515-1513-|
D----------------------------------------------------------------------------|
A--44-44-44-44--1111-1111-1111-1113---99---99---99---99--1313-1313-1313-1311-|
E----------------------------------------------------------------------------|

----------------------------------------------------------------------------|
----------------------------------------------------------------------------|
--66-66-66-66--1313-1313-1313-1315--1111-1111-1111-1111-1515-1515-1515-1513-|
----------------------------------------------------------------------------|
--44-44-44-44--1111-1111-1111-1113---99---99---99---99--1313-1313-1313-1311-|
----------------------------------------------------------------------------|

Pre-Chorus
e----------------------------------------------------------------------|
B----------------------------------------------------------------------|
G---66-66-66-66--1313-1313-1313-1313--66-66-66-66--1515-1515-1515-1513-|
D----------------------------------------------------------------------|
A---44-44-44-44--1111-1111-1111-1111--44-44-44-44--1313-1313-1313-1313-|
E----------------------------------------------------------------------|

Chorus
e---------------------------------------|
B---------------------------------------|
G-66-66-6-6-----------------------------|
D-66-66-6-6-66-66-6-6-44-44-4-4—-8—-6-4-|
A-44-44-4-4-66-66-6-6-44-44-4-4—-8--6-4-|
E-----------44-44-4-4-22-22-2-2—-6--4-2-|

---------------------------------------|
---------------------------------------|
-66-66-6-6-----------------------------|
-66-66-6-6-66-66-6-6-44-44-4-4—-8—-6-4-|
-44-44-4-4-66-66-6-6-44-44-4-4—-8--6-4-|
-----------44-44-4-4-22-22-2-2—-6--4-2-|

Verse
e--------------------------------------------|
B--------------------------------------------|
G-66-66--------------------------------------|
D-66-66------66-66------44-44------8---6---4-|
A-44-44------66-66------44-44—-----8---6---4-|
E------------44-44------22-22------6---4---2-|

--------------------------------------------|
--------------------------------------------|
-66-66--------------------------------------|
-66-66------66-66------44-44------8---6---4-|
-44-44------66-66------44-44------8---6---4-|
------------44-44------22-22------6---4---2-|

Pre Chorus
e--------------------------------------------|
B--------------------------------------------|
G-66-66--6-6---------------------------------|
D-66-66--6-6-66-66--6-6-44-44--4-4---8--6--4-|
A-44-44--4-4-66-66--6-6-44-44--4-4---8--6--4-|
E------------44-44--4-4-22-22--2-2---6--4--2-|

Chorus
e--------------------------------------------|
B--------------------------------------------|
G-66-66--6-6---------------------------------|
D-66-66--6-6-66-66--6-6-44-44--4-4---8--6--4-|
A-44-44--4-4-66-66--6-6-44-44--4-4---8--6--4-|
E------------44-44--4-4-22-22--2-2---6--4--2-|

--------------------------------------------|
--------------------------------------------|
-66-66--6-6---------------------------------|
-66-66--6-6-66-66--6-6-44-44--4-4---8--6--4-|
-44-44--4-4-66-66--6-6-44-44--4-4---8--6--4-|
------------44-44--4-4-22-22--2-2---6--4--2-|

Bridge (Each Bar Count To 8 And You're here It Change!)
e-------------------------------------|
B-------------------------------------|
G-------------------------------------|
D-66666666-88888888-66666666-10—-8—-6-|
A-66666666-88888888-66666666-10—-8—-4-|
E-44444444-66666666-44444444-8---6—-4-|

-------------------------------------|
-------------------------------------|
-------------------------------------|
-66666666-88888888-66666666-10—-8—-6-|
-66666666-88888888-66666666-10—-8—-4-|
-44444444-66666666-44444444-8---6—-4-|

--------------------------------------------|
--------------------------------------------|
-66-66--------------------------------------|
-66-66------66-66------44-44------8---6---4-|
-44-44------66-66------44-44------8---6---4-|
------------44-44------22-22------6---4---2-|

--------------------------------------------|
--------------------------------------------|
-66-66--6-6---------------------------------|
-66-66--6-6-66-66--6-6-44-44--4-4---8--6--4-|
-44-44--4-4-66-66--6-6-44-44--4-4---8--6--4-|(Let Ring)
------------44-44--4-4-22-22--2-2---6--4--2-|

Chorus
e-------------------------------------|
B-------------------------------------|
G-------------------------------------|
D-66666666-88888888-66666666-10—-8—-6-|
A-66666666-88888888-66666666-10—-8—-4-|
E-44444444-66666666-44444444-8---6—-4-|

-------------------------------------|
-------------------------------------|
-------------------------------------|
-66666666-88888888-66666666-10—-8—-6-|
-66666666-88888888-66666666-10—-8—-4-|
-44444444-66666666-44444444-8---6—-4-|

-------------------------------------|
-------------------------------------|
-------------------------------------|
-66666666-88888888-66666666-10—-8—-6-|
-66666666-88888888-66666666-10—-8—-4-|
-44444444-66666666-44444444-8---6—-4-|

--------------------------------------------|
--------------------------------------------|
-66-66--------------------------------------|
-66-66------66-66------44-44------8---6---4-|
-44-44------66-66------44-44------8---6---4-|
------------44-44------22-22------6---4---2-|

Rock On Dudes Coz We Are All Innocent!
Suggest correction
comments
print report bad tab
3 comments total.
0 reply
emo_punk_guitar 30 Nov 21, 2007 02:17 PM

theres a bunch of the lead parts missing, such as during the chorus and after the second chorus

+1 reply
Monkey082692 164 Nov 08, 2009 03:07 PM

most our lady peace songs are in c#/db or eb but other than that the intro just didn't sound right to me maybe it is, but not to me

0 reply
rygor42 31 Dec 05, 2011 07:57 PM

check out the other tab (version 2, soon to be 3) for a "fuller" intro sound and those lead parts!

guest
You may want to rate the tab now too:
select rating
Wanna post a correction for this tab? Suggest correction