Oops, an error
Loading. Please wait.

Monkey Brains Tab

version 1
version 1

Whole song

1,329 views 1 this week
no commentswrite comment
1 2 3 4 5
please rate
add to favorites
launch autoscroll
font size
0
reset
how to read this tab
guitar tuner
Autoscroll
slow
fast
+/-
esc
set tempo
stop
Help us to improve Ultimate-Guitar.com Take our survey!
×
Author
Avrill 1,273
Our lady peace - Monkey brains
album: Burn burn

e-mail: avrill_xx@yahoo.com

I think this song has only one guitar, but it's hard to hear sometimes because the 
bass is very present
I'm also not completely sure about the solo, so if you have any corrections, just mail me :)

INTRO
e|---------------------------------|
B|-------------------------5h6-6-6-|
G|-7777777-7-7-7--77777777---------|
D|-xxxxxxx-x-x-x--xxxxxxxx---------|
A|-5555555-5-5-5--55555555---------|
E|---------------------------------|

(this is probably bass, but it's more fun if you play it too)
e|-------------------------------------------|
B|-------------------------------------------|
G|-------------------------------------------|
D|-------------------------------------------|  
A|-5-5-5-5--5-3-3-3-3--3-5-5-5-5--5----------|
E|----------------------------------6-6-8-8--|


VERSE
repeat this riff during the verses:

    Dm       C
e|-------------|
B|------6------|
G|--7-7----5-5-|
D|--7-7----5-5-|
A|--5-5----3-3-|
E|-------------|

     Dm   Bb    C
e|-----------------|
B|------6----------|
G|--7-7---3-3--5-5-|
D|--7-7---3-3--5-5-|
A|--5-5---1-1--3-3-|
E|-----------------|


CHORUS
chorus riff
e|--------------------------------------------------------------------------|
B|---------------------------------------------------------------9h10-------|
G|-777777--7-7-7--9999999--9-9-9--101010101010-10-10-10--10-12-10-----10-9--|
D|-xxxxxx--x-x-x--xxxxxxx--x-x-x--xxxxxxxxxxxx-x--x--x----------------------|
A|-555555--5-5-5--7777777--7-7-7--888888888888-8--8--8----------------------|
E|--------------------------------------------------------------------------|
x2

    Dm
e|------------|
B|-------6-6--|
G|--7-7-------|
D|--7-7-------|
A|--5-5-------|
E|------------|


VERSE
    Dm     C
e|-------------|
B|------6------|
G|--7-7----5-5-|
D|--7-7----5-5-|
A|--5-5----3-3-|
E|-------------|

e|-----------------|
B|------6----------|
G|--7-7---3-3--5-5-|
D|--7-7---3-3--5-5-|
A|--5-5---1-1--3-3-|
E|-----------------|

CHORUS

they're coming after you!
e|--------------------------------------------------------------------------|
B|---------------------------------------------------------------9h10-------|
G|-777777--7-7-7--9999999--9-9-9--101010101010-10-10-10--10-12-10-----10-9--|
D|-xxxxxx--x-x-x--xxxxxxx--x-x-x--xxxxxxxxxxxx-x--x--x----------------------|
A|-555555--5-5-5--7777777--7-7-7--888888888888-8--8--8----------------------|
E|--------------------------------------------------------------------------|

x2

BRIDGE
e|---------------------------------|
B|-------6-6------8-8--------10-10-|
G|--7-7--x-x--9-9-x-x--10-10--x--x-|
D|--7-7--x-x--9-9-x-x--10-10--x--x-|
A|--5-5-------7-7------8--8--------|
E|---------------------------------|

e|----------------------10-12-10-10h12-13-12-12/13-|
B|-11-10-11-11h13-11-13----------------------------|
G|-------------------------------------------------|
D|-------------------------------------------------|
A|-------------------------------------------------|
E|-------------------------------------------------|


Bb: x13311
F : xx3211
C : x32030
Gm: 355333

Bb F C Gm

Bb          F                 C   Gm
Generations trying to find a home
Bb               F                    C   Gm
A thousand miles away from what they know
             Bb F C Gm   
It's time to go
             Bb F C Gm 
it's time to go

Bb          F                 C   Gm
Generations trying to find a home
Bb               F                    C   Gm
A thousand miles away from what they know
             Bb F C Gm   
It's time to go
             Bb F C Gm 
it's time to go
             Bb F C Gm   
It's time to go
             Bb F C Gm 
it's time to go


SOLO
e|-------------------------------------------|
B|-------------------------------------------|
G|-------------------------------------------|
D|-------------------------------------------|
A|-5-5-5-5--5-3-3-3-3--3-5-5-5-5--5----------|
E|----------------------------------6-6-8-8--|

e|-------------------------------------------------------------------------------------|
B|-------------------------------------------------------------------------------------|
G|-/14-12--12-12h14--14-10-10h12-9--9--10p9h10-10p9-9-12p10-10-12h14-14-14h15-14-14-14-|
D|-------------------------------------------------------------------------------------|
A|-------------------------------------------------------------------------------------|
E|-------------------------------------------------------------------------------------|


e|----------------------------------------13-13-13-13/15-|
B|------------10-13-13-13------13--13/15-----------------|
G|-14-15-14-----------------14---------------------------|
D|-------------------------------------------------------|
A|-------------------------------------------------------|
E|-------------------------------------------------------|


e|--------------------------------------------------------------------------|
B|---------------------------------------------------------------9h10-------|
G|-777777--7-7-7--9999999--9-9-9--101010101010-10-10-10--10-12-10-----10-9--|
D|-xxxxxx--x-x-x--xxxxxxx--x-x-x--xxxxxxxxxxxx-x--x--x----------------------|
A|-555555--5-5-5--7777777--7-7-7--888888888888-8--8--8----------------------|
E|--------------------------------------------------------------------------|

they're coming after you! ...
e|---------------------------------------------------------------------------------|
B|101010101010x10-10-121212121212-12-12-12-131313131313-13-13-13-13-15-13-17-13-12-|
G|-7-7-7-7-7-7x7--7--9-9-9-9-9-9--9--9--9--101010101010-10-10-10-10-12-10-14-10-9--|
D|---------------------------------------------------------------------------------|
A|---------------------------------------------------------------------------------|
E|---------------------------------------------------------------------------------|

repeat this a few times
Suggest correction new What's this?
You can suggest a correction to this tab. Community and Mods will review your correction and vote to approve or reject it.
comments
We did not receive enough feedback on this tab! Please rate:
print report bad tab
1 2 3 4 5
guest
You may want to rate the tab now too:
select rating
Please do not post tabs as comments. Select "correction" instead!