Oops, an error
Loading. Please wait.

Monkey Brains tab

version 2
version 2

Whole song

198 views 1 this week
no commentswrite comment
1 2 3 4 5
3 more votes to show rating
add to favorites
×
Save as Personal and add changes to this tab that will be seen only by you. Learn more ›
×
You can save this tab as Personal to edit and correct it or add notes. All changes will be seen only by you. Learn more »
launch autoscroll
font size
0
reset
how to read this tab
guitar tuner
edit
Autoscroll
slow
fast
+/-
esc
set tempo
stop
Author
-------------------------------------------------------------------------------
                             Monkey Brains - Our Lady Peace
-------------------------------------------------------------------------------
Tabbed by: SameOld
Email: nova.osborne@yahoo.ca

Tuning: Standard

With the Intro just strum a D Power Chord like crazy. I think Mazur uses an effect
the verses. Try and play as much of the song on the low E as possible, as it gives the
a thicker, almost warmer feel, whereas on the A string they're a little sterile.

Verse:
e|-----------------------------------------------------------------------------|
B|-----------------------------------------------------------------------------|
G|----------10--------------8--------------------------------------------------|
D|-12-------10-10----12-----8-8---10-------------------------------------------|
A|-12-------8-10-----12-----6-8---10-------------------------------------------|
E|-10-------8-8------10-----6-6---8--------------------------------------------|

Chorus:
Every 4 beats switch the chord
e|---------------------------------------------------------------------------|
B|---------------------------------------------------------------------------|
G|-7--9--10------------------------------------------------------------------|
D|---------------------------------------------------------------------------|
A|-5--7--8-------------------------------------------------------------------|
E|---------------------------------------------------------------------------|

Post chorus lick
e|---------------------------------------------------------------------------|
B|----------10b--------------------------------------------------------------|
G|-10-12-10---10-12------------10b-10b---------------------------------------|
D|----------------------12-12------------------------------------------------|
A|----------------------12-12------------------------------------------------|
E|----------------------10-10------------------------------------------------|

Pre Acoustic Freak out
e|-----------------------------------------------------------------------------|
B|---------------------8b-8b---------9b-9b-------------------------------------|
G|-------10b-10b--9-9----------10-10-------------------------------------------|
D|-12-12----------9-9----------10-10-------------------------------------------|
A|-12-12----------7-7----------8--8--------------------------------------------|
E|-10-10-----------------------------------------------------------------------|

e|---------------------------------------------------------------------------|
B|---------------------------------------------------------------------------|
G|---------------------------------------------------------------------------|
D|---------------------------------------------------------------------------|
A|---------------------------------------------------------------------------|
E|---------------------------------------------------------------------------|

Acoustic Interlude:
The singer picks up a guitar here and play these power chords. Lead guitar essentially
the same thing. It's tempting to play minor barre chords here, but I'm pretty sure it's
power chords. The interval resolve here really does the trick and you don't need to 
it.
e|-----------------------------------------------------------------------------|
B|-----------------------------------------------------------------------------|
G|-3-----5---------------------------------------------------------------------|
D|-3--3--5--5------------------------------------------------------------------|
A|-1--3--3--5------------------------------------------------------------------|
E|----1-----3------------------------------------------------------------------|

No Solo yet, so just go nuts in D Minor
e|---------------------------------------------------------------------------|
B|---------------------------------------------------------------------------|
G|---------------------------------------------------------------------------|
D|---------------------------------------------------------------------------|
A|---------------------------------------------------------------------------|
E|---------------------------------------------------------------------------|

e|---------------------------------------------------------------------------|
B|---------------------------------------------------------------------------|
G|---------------------------------------------------------------------------|
D|---------------------------------------------------------------------------|
A|---------------------------------------------------------------------------|
E|---------------------------------------------------------------------------|


| /  slide up
| \  slide down
| h  hammer-on
| p  pull-off
| ~  vibrato
| +  harmonic
| x  Mute note
===============================================================================
Suggest correction
Creating personal tab
Creating personal tab
You can edit any tab online and save it as your Personal.

You can edit, replace or remove any tab part or add personal notes – all changes will be seen only by you.

Personal tabs can be accessed anytime from any device, even offline.
Learn more »
Give kudos to tab author, rate the tab!
1 2 3 4 5
comments
print report bad tab
guest
You may want to rate the tab now too:
select rating
Wanna post a correction for this tab? Suggest correction