Oops, an error
Loading. Please wait.

Not Enough Tab

version 4
version 4

Whole song

Interactive

2,032 views 3 this week
1 commentread comment
1 2 3 4 5
x 8
add to favorites
×
Save as Personal and add changes to this tab that will be seen only by you. Learn more ›
×
You can save this tab as Personal to edit and correct it or add notes. All changes will be seen only by you. Learn more »
save as personal
new!
launch autoscroll
font size
0
reset
how to read this tab
guitar tuner
Autoscroll
slow
fast
+/-
esc
set tempo
stop
Our Lady Peace - Not Enough

Artist's: Our Lady Peace
Song Title: Not Enough
Album: Gravity

Intro
e----------------------------0----------2-----------------------------|
B-----------5------------------------------0--4-----------------------|
G----------------------4---------------------------------4------------|
D-------6-----------2-----2---------------------------4---------------| x2
A---4------------0------------------2--------------2------------------|
E--------------------------------0------------------------------------|

Verse
e----------------------------------0--------2----------------|
B----------5-----------------------------------0—-4----------|
G--------6---6---------------4--------------------------4—-4-|
D------6-------6----------2-----2-----------------------4—-4-|
A----4-----------------0-----------------2-----------2—-2—-2-|
E-------------------------------------0----------------------|

e--------------------------------0--0----------------------------------|
B----------5------------------------0----------4--4----4------------—--|
G--------6----6--------------4-----------------2--2----2---------4--4--|
D------6--------6---------2----2---------------------------------4--4--|
A---4-----------------0---------------------2-----------------2--2--2--|
E-----------------------------------------0----------------------------|

Chorus x2
e---------------------------------------------------------------|
B---------------------------------------------------------------|
G---4-6--6---6-6--6-6-6-6-6-6-6-6-6--2---2-2--2-2-2-2-2-2-2-2-2-|
D-6-4-6--6---6-6--6-6-6-6-6-6-6-6-6--2---2-2--2-2-2-2-2-2-2-2-2-|
A-6-2-4--4---4-4--4-4-4-4-4-4-4-4-4--0---0-0--0-0-0-0-0-0-0-0-0-|
E-4-------------------------------------------------------------|

-------------------------------------------------------|
-------------------------------------------------------|
-1---1-1--1-1-1-1-1-1-1-1-1--4---4-4--4-4-4-4-4-4------|
-2---2-2--2-2-2-2-2-2-2-2-2--4---4-4--4-4-4-4-4-4------|
-2---2-2--2-2-2-2-2-2-2-2-2--2---2-2--2-2-2-2-2-2------|
-------------------------------------------------------|

Intro To Verse
e-------------------------------0----------2-----------------------------|
B-------5--4-5-4------------------------------0--4-----------------------|
G----------------6--------4---------------------------------4--4---------|
D-----6----------------2-----2---------------------------4-------4-------|
A---4---------------0------------------2--------------2------------------|
E-----------------------------------0------------------------------------|

Verse
e----------------------------------0--------2----------------|
B----------5-----------------------------------0—-4----------|
G--------6---6---------------4--------------------------4—-4-|
D------6-------6----------2-----2-----------------------4—-4-|
A----4-----------------0-----------------2-----------2—-2—-2-|
E-------------------------------------0----------------------|

e--------------------------------0--0----------------------------------|
B----------5------------------------0----------4--4----4------------—--|
G--------6----6--------------4-----------------2--2----2---------4--4--|
D------6--------6---------2----2---------------------------------4--4--|
A---4-----------------0---------------------2-----------------2--2--2--|
E-----------------------------------------0----------------------------|

Chorus x2
e---------------------------------------------------------------|
B---------------------------------------------------------------|
G---4-6--6---6-6--6-6-6-6-6-6-6-6-6--2---2-2--2-2-2-2-2-2-2-2-2-|
D-6-4-6--6---6-6--6-6-6-6-6-6-6-6-6--2---2-2--2-2-2-2-2-2-2-2-2-|
A-6-2-4--4---4-4--4-4-4-4-4-4-4-4-4--0---0-0--0-0-0-0-0-0-0-0-0-|
E-4-------------------------------------------------------------|

-------------------------------------------------------|
-------------------------------------------------------|
-1---1-1--1-1-1-1-1-1-1-1-1--4---4-4--4-4-4-4-4-4------|
-2---2-2--2-2-2-2-2-2-2-2-2--4---4-4--4-4-4-4-4-4------|
-2---2-2--2-2-2-2-2-2-2-2-2--2---2-2--2-2-2-2-2-2------|
-------------------------------------------------------|

Bridge
e----------------------------------------|
B----------------------------------------|
G-6-6—--6-6---6-6---6-6---6-6-6-6-6-6—-6-|
D-6-6---6-6---6-6---6-6---6-6-6-6-6-6—-6-| x5
A-4-4---4-4---4-4---4-4---4-4-4-4-4-4--4-|
E----------------------------------------|

Solo 1

e---------------------------------------------------------------------------|
B-------------5-6-5--------------5-6-5------------------3---------------5---|
G-2--5--7-------------5---3-------------5---2---------5---5-5--5-5-5-5----5-|
D---------------------------------------------------3-----------------------|
A---------------------------------------------------------------------------|
E---------------------------------------------------------------------------|

e---------------------------------------------------------------------------|
B-------------5-6-5--------------5-6-5--------------------------6-8—8—8-----|
G-2--5--7--7----------5---3--------------5---2----------5-7-7-5-------------|
D---------------------------------------------------3-3---------------------|
A---------------------------------------------------------------------------|
E---------------------------------------------------------------------------|

Chorus x2
e---------------------------------------------------------------|
B---------------------------------------------------------------|
G---4-6--6---6-6--6-6-6-6-6-6-6-6-6--2---2-2--2-2-2-2-2-2-2-2-2-|
D-6-4-6--6---6-6--6-6-6-6-6-6-6-6-6--2---2-2--2-2-2-2-2-2-2-2-2-|
A-6-2-4--4---4-4--4-4-4-4-4-4-4-4-4--0---0-0--0-0-0-0-0-0-0-0-0-|
E-4-------------------------------------------------------------|

-------------------------------------------------------|
-------------------------------------------------------|
-1---1-1--1-1-1-1-1-1-1-1-1--4---4-4--4-4-4-4-4-4------|
-2---2-2--2-2-2-2-2-2-2-2-2--4---4-4--4-4-4-4-4-4------|
-2---2-2--2-2-2-2-2-2-2-2-2--2---2-2--2-2-2-2-2-2------|
-------------------------------------------------------|

Outro Solo
e--------------------------------------------|
B--5-5-6-5-6-5-6-5-6-8---5-6-5-6-5-6-5-6-1---|
G--------------------------------------------|
D--------------------------------------------|
A--------------------------------------------|
E--------------------------------------------|

e--------------------------------------------|
B--5-6-5-6-5-6-5-6-5-6-6-13-13-15------------|
G--------------------------------------------|
D--------------------------------------------|
A--------------------------------------------|
E--------------------------------------------|

e----------10----------10-------10-------13-13-13-13-12-12-12-10-10-10-8-10-|
B--5-6-5-------5-6-5--------------------------------------------------------|
G--------7--7-7-------7-7----7-7-7---7-7-5-7--------------------------------|
D---------------------------------------------------------------------------|
A---------------------------------------------------------------------------|
E---------------------------------------------------------------------------|

e---------------------|
B----5-6--------------|
G--------2---------7--|
D----------3--2-3-----|
A--5---------------5--|
E---------------------|
Suggest correction
comments
print report bad tab
1 comment total.
0 reply
x_Hezee_x 104 May 02, 2011 08:03 AM

hows that last part go?

guest
You may want to rate the tab now too:
select rating
Wanna post a correction for this tab? Suggest correction