Oops, an error
Loading. Please wait.

Starseed bass

version 3
version 3

Whole song

Interactive

569 views 3 this week
no commentswrite comment
1 2 3 4 5
3 more votes to show rating
add to favorites
×
Save as Personal and add changes to this tab that will be seen only by you. Learn more ›
×
You can save this tab as Personal to edit and correct it or add notes. All changes will be seen only by you. Learn more »
launch autoscroll
font size
0
reset
guitar tuner
edit
Autoscroll
slow
fast
+/-
esc
set tempo
stop
Author
Difficulty
                                        Starseed by Our Lady Peace
                        I used some other tabs floating around to make this one....
                        I think it's about 99% correct.

        


                                        Intro
G |-------------|------------------|---------------|--------------|
D |-------------|------------------|---------------|--------------|
A |-2h4---4---4-|--2h4---4---4-----|-2h4---4---4-2-|-4---4-7--7-6-|
Db|-----0---0---|------0---0---5h7-|-----0---0-----|--------------|
                                                "Yeah,Yeah,Yeah..."

                VERSE/CHORUS
       This is played four times..
G |-----------------|-----------------||
D |-----------------|-----------------||
A |-2h4---4---4-2h4-|-2h4---4---4-----||
Db|-----0---0-------|-----0---0---5h7-||

G |-----------------|-----------------||-----------------|-----------------||
D |-----------------|-----------------||-----------------|-----------------||
A |-----------------|-----------------||-2h4---4---4-2h4-|-2h4---4---4-----||
Db|-5-5-5-5-5-5-5-5-|-3-3-3-3-2-2-2-2-||-----0---0-------|-----0---0---5h7-||
   
   (1 + 2 + 3 + 4 +) (1 + 2 + 3 + 4 +)            Play this part twice...


Play the verse/chorus twice (INCLUDING ALL REPEATS) and then....


   (1 + 2 + 3 + 4 +) (1 + 2 + 3 + 4 +) (1 + 2 + 3 + 4 +)
G |-----------------|-----------------|-----------------||
D |-----------------|-----------------|-----------------||
A |-----------------|-----------------|-----------------||
Db|-5-5-5-5-5-5-5-5-|-3-3-3-3-3-3-3-3-|-3-3-3-3-3-3-3-3-||
    "Yea -ee, yea -ee, yea -ee, yeah -eeeeeeeeeee......"

The chorus is the verse. Make sure you play the last two bars twice still...
Play the verse again, then the chorus, then before the drum fill and solo....




G |-----------------|-----------------|-----------------|
D |-----------------|-----------------|-----------------|
A |-----------------|---------2-2-2-2-|-----------------|
Db|-0-0-0-0-0-0-0-0-|-0-0-0-0---------|-0-0-0-0-0-0-0-0-|

                     Then the solo riff..

         Play this four times:
G |-----------------|-----------------|
D |-----------------|-----------------|
A |-----------------|---------2-2-2-2-|
Db|-0-0-0-0-0-0-0-0-|-0-0-0-0---------|


G |-----------------|-----------------|------------------|-----------------|
D |-----------------|-----------------|------------------|-----------------|
A |-----------------|-----------------|--2h4---4---4-2h4-|-2h4---4---4-----|
Db|-5-5-5-5-5-5-5-5-|-3-3-3-3-2-2-2-2-|------0---0-------|-----0---0---5h7-|

G |-----------------|-------------------|
D |-----------------|-------------------|
A |-2h4---4---4-2h4-|-------------------|
Db|-----0---0-------|-5-5-5--3-3-3--2-2-|

                     (1 + 2)(+ 3 +) (4 +)
Then the chorus again, but play the last bar of the solo riff at the end of
each chorus (nothing, nothing....)

That's it.

            
            
Suggest correction
Creating personal tab
Creating personal tab
You can edit any tab online and save it as your Personal.

You can edit, replace or remove any tab part or add personal notes – all changes will be seen only by you.

Personal tabs can be accessed anytime from any device, even offline.
Learn more »
Give kudos to tab author, rate the tab!
1 2 3 4 5
comments
print report bad tab
guest
You may want to rate the tab now too:
select rating
Wanna post a correction for this tab? Suggest correction