Oops, an error
Loading. Please wait.

Stealing Babies Tab

version 2
version 2

Whole song

496 views 1 this week
1 commentread comment
1 2 3 4 5
3 more votes to show rating
add to favorites
×
Save as Personal and add changes to this tab that will be seen only by you. Learn more ›
×
You can save this tab as Personal to edit and correct it or add notes. All changes will be seen only by you. Learn more »
save as personal
new!
launch autoscroll
font size
0
reset
how to read this tab
guitar tuner
Autoscroll
slow
fast
+/-
esc
set tempo
stop
Band:Our Lady Peace 
   Song:Stealing Babies 
   Album:Happiness...Is Not A Fish That You Can Catch 
   Send any corrections or comments to sl_mcclure@hotmail.com 

   Standard tuning 

   Intro/Verse: Bm A G 
   e-------------3-3-3-3-3-3-3- 
   B-3-3-2-2-2-2-3-3-3-3-3-3-3- 
   G-4-4-2-2-2-2-0-0-0-0-0-0-0- 
   D-4-4-2-2-2-2-0-0-0-0-0-0-0- 
   A-2-2-0-0-0-0-2-2-2-2-2-2-2- 
   E-------------3-3-3-3-3-3-3- 

   Pre-Chorus: "How should I say 'I'm so sorry'" 
   e-----------------3-3-3-3--------- 
   B-3-3-3-3-3---0-2-3-3-3-3-2-2-2-2- 
   G-4-4-4-4-4-0-2-2-0-0-0-0-2-2-2-2- 
   D-4-4-4-4-4-2-2-2-0-0-0-0-2-2-2-2- 
   A-2-2-2-2-2-0-0-0-2-2-2-2-0-0-0-0- 
   E-----------------3-3-3-3--------- 

   Repeat and lead into chorus with F# 

   Bridge: 
   e---------------------------------------------- 
   B---------------------------------------------- 
   G-------14----14/16-13------------------------- 
   D-14/16----16----------14-------12----12/14-14- 
   A-------------------------12/14----14---------- 
   E---------------------------------------------- 

   Outro: D A G A 
   D A G 

   Lyrics: 
   I'm teething on the answers you're saving 
   How are you going to make me understand 
   I'm dreaming while you're stealing babies 
   How are you going to help me sleep again 

   How should I say "I'm so sorry" 
   How should I pray to know that we're alive 

   Eve stands alone 
   By the knock on the door 
   By the thin in her bones 
   She's courageous and loving 
   Exhausted & cold 
   She's not ready to go 
   But the ghost on the phone 
   Helps her safely into her dream 

   You're leaving pieces of family 
   How are you going to help them understand 
   I'm screaming while you're stealing babies 
   Why do you want to knock us down again 
Suggest correction
Give kudos to tab author, rate the tab!
1 2 3 4 5
comments
print report bad tab
1 comment total.
0 reply
.iplayaguitar. 91 Jul 29, 2006 02:36 PM

The brdge should

E----------------------------------------------------------
B----------------------------------------------------------
G----------16----------------------------------------------
D-16/19-16----18-14----------14----------------------------
A-------------------14/17-14----16-12----------------------
E----------------------------------------------------------

Then on the end bit where it repeats the notes, the notes are

E----------------------------------------------------------
B----------------------------------------------------------
G--16-------16---------------------------------------------
D-----18-14----18-14---------------------------------------
A----------------------------------------------------------
E----------------------------------------------------------

guest
Wanna post a correction for this tab? Suggest correction