Oops, an error
Loading. Please wait.

Supermans Dead tab

version 2
version 2

Whole song

Interactive

52,718 views 18 this week
4 commentsread comments
1 2 3 4 5
x 32
add to favorites
×
Save as Personal and add changes to this tab that will be seen only by you. Learn more ›
×
You can save this tab as Personal to edit and correct it or add notes. All changes will be seen only by you. Learn more »
launch autoscroll
font size
0
reset
how to read this tab
guitar tuner
edit
Autoscroll
slow
fast
+/-
esc
set tempo
stop
Author
Tuning: Drop down half a step (Eb Ab Db Gb Bb eb)

[Intro]
G-1
e|----------------------------------------------------------------|
B|----------------------------------------------------------------|
G|----------------------------------------------------------------| (2x)
D|--0--0--0--0--0-/-0--0--0--0--0--0--0--0--0--0-/-0--0--0--0--0--|
A|--9--9--9--9--9-/12-12-12-12-12--7--7--7--7--7-/10-10-10-10-10--|
E|--7--7--7--7--7-/10-10-10-10-10--5--5--5--5--5-/-8--8--8--8--8--|

[Verse]
G-1
e|----------------------------------------------------------------|
B|----------------------------------------------------------------|
G|----------------------------------------------------------------| (4x)
D|--0--0--0--0--0-/-0--0--0--0--0--0--0--0--0--0-/-0--0--0--0--0--|
A|--9--9--9--9--9-/12-12-12-12-12--7--7--7--7--7-/10-10-10-10-10--|
E|--7--7--7--7--7-/10-10-10-10-10--5--5--5--5--5-/-8--8--8--8--8--|

G-2
e|-7-7-7-7-7-7-7-7-7-7-7-7-7-7-7-7-7-7-7-7-7-7-7-7-7-8-8-8-8-8-8-8-|
B|-0-0-0-0-0-0-0-0-0-0-0-0-0-0-0-0-0-0-0-0-0-0-0-0-0-0-0-0-0-0-0-0-|
G|-4-4-4-4-4-4-4-4-4-4-4-4-4-4-4-4-4-4-4-4-4-4-4-4-4-5-5-5-5-5-5-5-| (4x)
D|-----------------------------------------------------------------|
A|-----------------------------------------------------------------|
E|-----------------------------------------------------------------|

G-3 (or 1)
(Fill at end of fourth time)
e|-----------------------|
B|-----------------------|
G|--9--9--9--9--9--9--9--|
D|-10-10-10-10-10-10-10--|
A|-10-10-10-10-10-10-10--|
E|--8--8--8--8--8--8--8--|

[Pre-Chorus]
(Both Guitars)                                              *(Gradually bend the 16)
e|---------------------------------------------------------0--0--0--0--0--0--0--0-|
B|---------------------------------------------------------0--0--0--0--0--0--0--0-|
G|-8-x-8-8-8-8-8-8-11-11-x-11-11-11-11-11-6-6-x-6-6-6-6-6-16-16-16-16-16-16-16-16-|(2x)
D|-9-x-9-9-9-9-9-9-12-12-x-12-12-12-12-12-7-7-x-7-7-7-7-7-------------------------|
A|-9-x-9-9-9-9-9-9-12-12-x-12-12-12-12-12-7-7-x-7-7-7-7-7-------------------------|
E|-7-x-7-7-7-7-7-7-10-10-x-10-10-10-10-10-5-5-x-5-5-5-5-5-------------------------|

e|---------------------------------------------------------------|
B|---------------------------------------------------------------|
G|---------------------------------------------------------------|
D|--0--0---0--0---0--0---0--0---0--0---0--0---0--0---0--0---0\---|
A|--9--9---9--9--12-12--12-12--12-12---7--7---7--7---7--7--10\---|
E|--7--7---7--7--10-10--10-10--10-10---5--5---5--5---5--5---8\---|

[Chorus]
(Both Guitars)
e|-----------------------------------------|-------------------------------------------|
B|-----------------------------------------|-------------------------------------------|
G|-4-4-4-4-4-7-7-7-7-7-----------5-5-5-5-5-|-4-4-4-4-4-7-7-7-7-------------------------|
D|-4-4-4-4-4-7-7-7-7-7-7-7-7-7-7-5-5-5-5-5-|-4-4-4-4-4-7-7-7-7-7-7-7-7-7-7-7-----------|
A|-2-2-2-2-2-5-5-5-5-5-7-7-7-7-7-3-3-3-3-3-|-2-2-2-2-2-5-5-5-5-7-7-7-7-7-7-7-3-3-3-3-3-|
E|-2-2-2-2-2-5-5-5-5-5-5-5-5-5-5-3-3-3-3-3-|-2-2-2-2-2-5-5-5-5-5-5-5-5-5-5-5---(harm.)-|

e|----------------------------------------|--------------------------------------------|
B|----------------------------------------|--------------------------------------------|
G|-4-4-4-4-4-7-7-7-7-7-----------5-5--5-5-|-4-4-4-4-4-7-7-7-7--------------------------|
D|-4-4-4-4-4-7-7-7-7-7-7-7-7-7-7-5-5--5-5-|-4-4-4-4-4-7-7-7-7-7-7-7-7-7-7-7------------|
A|-2-2-2-2-2-5-5-5-5-5-7-7-7-7-7-3-3--3-3-|-2-2-2-2-2-5-5-5-5-7-7-7-7-7-7-7------------|
E|-2-2-2-2-2-5-5-5-5-5-5-5-5-5-5-3-3--3-3-|-2-2-2-2-2-5-5-5-5-5-5-5-5-5-5-5--5-5--5-5--|

[Verse 2]
G-1
1|----------------------------------------------------------------|
2|----------------------------------------------------------------|
3|----------------------------------------------------------------|(4x)
4|--0--0--0--0--0-/-0--0--0--0--0--0--0--0--0--0-/-0--0--0--0--0--|
5|--9--9--9--9--9-/12-12-12-12-12--7--7--7--7--7-/10-10-10-10-10--|
6|--7--7--7--7--7-/10-10-10-10-10--5--5--5--5--5-/-8--8--8--8--8--|

G-2
1|-----0----------0-----------0-----------0----|------0-----------0-----------0---------0----|
2|---7---7-----7-----7-----7-----7-----7-----7-|---7-----7-----7-----7-----7-----7---7-----7-|
3|---------------------------------------------|---------------------------------------------|(2x)
4|---------------------------------------------|---------------------------------------------|
5|----------5----------------------------------|------------5-----------7--------------------|
6|-7--------------------7-----------8----------|-7---------------------------------8---------|

[Bridge]
(Both Guitars)                                                  *(Gradually bend the 16)
e|-----------------------------------------------------------0--0--0--0--0--0--0--0--|
B|-----------------------------------------------------------0--0--0--0--0--0--0--0--|
G|-8-x-8-8-8-8-8-8--11-11-x-11-11-11-11-11--6-6-x-6-6-6-6-6-16-16-16-16-16-16-16-16--|(2x)
D|-9-x-9-9-9-9-9-9--12-12-x-12-12-12-12-12--7-7-x-7-7-7-7-7--------------------------| 
A|-9-x-9-9-9-9-9-9--12-12-x-12-12-12-12-12--7-7-x-7-7-7-7-7--------------------------|
E|-7-x-7-7-7-7-7-7--10-10-x-10-10-10-10-10--5-5-x-5-5-5-5-5--------------------------|

                                    *(Gradually bend the 16)
e|---------------------------0--0--0--0--0--0--0--0--|
B|---------------------------0--0--0--0--0--0--0--0--|
G|--6--6--x--6--6--6--6--6--16-16-16-16-16-16-16-16--|
D|--7--7--x--7--7--7--7--7---------------------------|
A|--7--7--x--7--7--7--7--7---------------------------|
E|--5--5--x--5--5--5--5--5---------------------------|

[Interlude]
(Both Guitars)
e|--------0--------0--------0-----------------|-------0--------0--------0--------0---|
B|--------0--------0--------0-----------------|-------0--------0--------0--------0---|
G|--4--4--4--3--3--3--2--2--2--1--1--9--9--9\-|-4--4--4--3--3--3--2--2--2--1--1--1---|(2x)
D|--5--5--5--4--4--4--3--3--3--2--2--x--x--x\-|-5--5--5--4--4--4--3--3--3--2--2--2---|
A|--5--5-----4--4-----3--3-----2--2--7--7--7\-|-5--5-----4--4-----3--3-----2--2------|
E|--3--3-----2--2-----1--1-----0--0-----------|-3--3-----2--2-----1--1-----0--0------|

e|--0--0--0--0--0--0--0--0--0--0--0--0--0--0--0--0--|
B|--0--0--0--0--0--0--0--0--0--0--0--0--0--0--0--0--|
G|--2--2--2--2--2--2--2--2--2--2--2--2--2--2--2--2--|(3x)
D|--3--3--3--3--3--3--3--3--3--3--3--3--3--3--3--3--|
A|--3--3--3--3--3--3--3--3--3--3--3--3--3--3--3--3--|
E|--1--1--1--1--1--1--1--1--1--1--1--1--1--1--1--1--|

[Outro]
(Both Guitars)
e|--3--3--3--3--2--2--2--2-----------------------------------------------3--2--2--2--0--0--0--0-0-0-0-0-0-0-0|
B|--3--3--3--3--3--3--3--3--2-----2--2-----0-----0--0--0--0-----------3--3--3--3--3--2--2--2--2-2-2-2-2-2-2-2|
G|--0--0--0--0--2--2--2--2--2-----2--2--0--0-----0--0--0--0--0-----0--0--0--2--2--2--2--2--2--2-2-2-2-2-2-2-2|
D|--0--0--------0-----0--0--2-----2--2--0--2-----2--2--2--2--0-----0--0-----0--0--0--2--2--2--2-2-2-2-2-2-2-2|
A|--x--x--------------------0--0--0--0-----2-----2--2--2--2--x-----x--x--------------0--0--0--0-0-0-0-0-0-0-0|
E|--3--3-----------------------------------0--0--0--0--0--0--3--3--3--3--------------0--0--0--0-0-0-0-0-0-0-0|
                         
                                         (use this last chord Bsus4 to replace         Em every fourth repeat)
                                         (play 11 times so tat you use Bsus4 twice)
e| --3-3-3-3-3--2-2-2-2-2---------------0-0-0-0-0-0-- |--0-0-0-0-0-0-0-|
B|*--3-3-3-3-3--3-3-3-3-3--2-2-2-2-2-2--0-0-0-0-0-0--*|--0-0-0-0-0-0-0-|
G| --0-0-0-0-0--2-2-2-2-2--2-2-2-2-2-2--0-0-0-0-0-0-- |--4-4-4-4-4-4-4-| 
D| --0-0-0-0-0--0-0-0-0-0--2-2-2-2-2-2--2-2-2-2-2-2-- |--4-4-4-4-4-4-4-|   
A|*--x-x-x-x-x-------------0-0-0-0-0-0--2-2-2-2-2-2--*|--2-2-2-2-2-2-2-| 
E| --3-3-3-3-3--------------------------0-0-0-0-0-0-- |----------------|     

e|--3-3-3-3-3-3--2-|
B|--3-3-3-3-3-3--3-|
G|--0-0-0-0-0-0--2-|
D|--0-0-0-0-0-0--0-|
A|--x-x-x-x-x-x----|
E|--3-3-3-3-3-3----|



************************************

| /  Slide up
| x  Dead note
| \  Slide down
| *  Natural harmonic


************************************

            
            
Suggest correction
Creating personal tab
Creating personal tab
You can edit any tab online and save it as your Personal.

You can edit, replace or remove any tab part or add personal notes – all changes will be seen only by you.

Personal tabs can be accessed anytime from any device, even offline.
Learn more »
comments
print report bad tab
4 comments total. Showing first comments.
0 reply
DevilsDance76 10 Jun 30, 2006 07:55 AM

Great tab

0 reply
floydian07 30 Jul 15, 2007 12:45 PM

Five stars. Awesome tab for a first.

0 reply
ofreena 178 Jan 08, 2009 10:36 AM

this was SO good! Thank you! I thought it'd be really hard but its not!

guest
You may want to rate the tab now too:
select rating
Wanna post a correction for this tab? Suggest correction