Oops, an error
Loading. Please wait.

Escape tab

version 2
version 2

Whole song

Interactive

2,137 views 3 this week
no commentswrite comment
1 2 3 4 5
2 more votes to show rating
add to favorites
×
Save as Personal and add changes to this tab that will be seen only by you. Learn more ›
×
You can save this tab as Personal to edit and correct it or add notes. All changes will be seen only by you. Learn more »
launch autoscroll
font size
0
reset
how to read this tab
guitar tuner
edit
Autoscroll
slow
fast
+/-
esc
set tempo
stop
SONG: Escape
BAND: Our Last Night
ALBUM: The Ghosts Among Us
TUNING: Db Ab Db Gb Bb Eb
I know it's been done before but I wasn't happy with the
way everyone was tabbing it. So here is my version.
Enjoy
.	=	Palm mute
x	=	Mute
h	=	Hammer on
p	=	Pull off
/\	=	Slide
^	=	Harmonic

Gtr 1 (Right Speaker)
------------------------------------------------------------- 
INTRO
|--------------------------------------------------|
|--------------------------------------------------|
|--------5--------5--------5--------5--------5-----|
|-----3--------3--------3--------3--------3-----3--|
|--5--------0--------1--------1--------1-----------|
|--------------------------------------------------|

|-----------------------------------------------|
|-----------------------------------------L-----|
|--------5--------5--------5--------5--5--E--R--|
|-----3--------3--------3--------3-----3--T--I--|
|--5--------0--------1--------1--------1-----N--|
|--------------------------------------------G--|

|---------------------------------------|\
|---------------------------------------||
|--5-5-5--5-5-5--5-5-5--5-5-5--5-5-5-5--||X3
|--3-3-3--3-3-3--3-3-3--3-3-3--3-3-3-3--||
|--5-5-5--0-0-0--1-1-1--1-1-1--1-1-1-1--||
|---------------------------------------|/

|----------------------------------------------|
|----------------------------------------------|
|--5-5-5-5-5-5--12-12-12-12-12-12-12-12-12-12--|
|--3-3-3-3-3-3---x--x--x--x--x--x--x--x--x--x--|
|--0-0-0-0-0-0--10-10-10-10-10-10-10-10-10-10--|
|----------------------------------------------|

|---------------------------------------|\
|---------------------------------------||
|--5-5-5--5-5-5--5-5-5--5-5-5--5-5-5-5--||X3
|--3-3-3--3-3-3--3-3-3--3-3-3--3-3-3-3--||
|--5-5-5--0-0-0--1-1-1--1-1-1--1-1-1-1--||
|---------------------------------------|/

|----------------------------------------------|
|----------------------------------------------|
|--5-5-5-5-5-5--12-12-12-12-12-12-12-12-12-12--|
|--3-3-3-3-3-3---x--x--x--x--x--x--x--x--x--x--|
|--0-0-0-0-0-0--10-10-10-10-10-10-10-10-10-10--|
|----------------------------------------------|

VERSE 1
|--------------------------------------8h10-----------------|
|--10----10----------------------------------10------10-----|
|-----12----12--10h12p10--9-10--9-9h10------------12----12--|
|-----------------------------------------------------------|
|-----------------------------------------------------------|
|-----------------------------------------------------------|

|--------------------------------------------------------------|
|--------------------------------------------------------------|
|----------------------------9-9-9-9/10--10-10-10-10/12-12-12--|
|----------------------------x-x-x-x--x---x--x--x--x--x--x--x--|
|--7h8-----5h7-------0--0----7-7-7-7/-8---8--8--8--8/10-10-10--|
|-------0------0--0--------------------------------------------|
pm      .      .  .

PRE-CHORUS
|-----------------------------------------------|
|--------8----8----------------8----------------|
|-----10---10---10----10----10---10--9h10----9--|
|--10--------------10----10---------------10----|
|-----------------------------------------------|
|-----------------------------------------------|
pm .. .. . .. . .. .. .. .. .. . ..       ..
|------------------------------------------------|
|--------8----8----------------8-----8h10--8-----|
|-----10---10---10----10----10---10----------10--|
|--10--------------10----10----------------------|
|------------------------------------------------|
|------------------------------------------------|
pm .. .. . .. . .. .. .. .. .. . ..
|-----------------------------------------------|
|--------8----8----------------8----------------|
|-----10---10---10----10----10---10--9h10----9--|
|--10--------------10----10---------------10----|
|-----------------------------------------------|
|-----------------------------------------------|
pm .. .. . .. . .. .. .. .. .. . ..       ..
|------------------------------------------------|
|--------8----8----------------------------------|
|-----10---10---10----10--9h10----9-9h10p9----9--|
|--10--------------10----------10----------10----|
|------------------------------------------------|
|------------------------------------------------|
pm .. .. . .. . .. .. ..       ..          ..

CHORUS
|-----------------------------------|\
|-----------------------------------| |
|-----------------------------------| |
|--0-0-0-0-0-0-0-0-0-0-0-0-0-0-0-0--| |
|--0-0-0-0-0-0-0-0-0-0-0-0-0-0-0-0--| |
|--0-0-0-0-0-0-0-0-0-0-0-0-0-0-0-0--| |
						  |
|------------------------------------||
|------------------------------------||
|------------------------------------||
|------------------------------------||
|------------------------------------||
|--5-5-5-5-5-5-5-5--7-7-7-7-7-7-7-7--||REPEAT
						  |
|-----------------------------------| |
|-----------------------------------| |
|-----------------------------------| |
|--0-0-0-0-0-0-0-0-0-0-0-0-0-0-0-0--| |
|--0-0-0-0-0-0-0-0-0-0-0-0-0-0-0-0--| |
|--0-0-0-0-0-0-0-0-0-0-0-0-0-0-0-0--| |
						  |
|--------------------------------|    |
|--------------------------------|    |
|--------------------------------|   /
|-----------------------------3--|  /
|-----------------------------3--| /
|--8-8-8-8-8-8--5-5-5-5-5--x--3--|/

VERSE 2
|---------------------------------|
|----------------G----------------|
|--------7-------T----------------|
|--0-----x-------R----------------|
|--0-----5------------------------|
|--0-------------2----------------|

|------------------------------------------|
|------------------------------------------|
|--3--LET----------------------------------|
|--3--RING-------0h3--0--2--5--0--7--------|
|--1---------------------------------4--4--|
|------------------------------------------|

|---------------------------------------------------|\
|---------------------------------------------------| \
|------------2--------------------------------------|  \
|--0--0-0-0----3--0--0-0-0--5-5--3-3--2--3--0-------|  |
|--0--0-0-0-------0--0-0-0---------------------3/5--|  |
|--0--0-0-0-------0--0-0-0--------------------------|  |
pm .  . . .       .  . . .  . .  . .  .  .  .		 |REPEAT
|-----------------------------------------------------||
|-----------------------------------------------------||
|--------------------5--------------------------------||
|--3--3-3-3--3p2--0-----3---0h3--0--2--5--0--7--------||
|--1--1-1-1-------------------------------------4--4--||
|-----------------------------------------------------|/
pm    . . . 
|-----------------------------------------------------------------|
|--G-------------------------------------6------------------------|
|--T-------------------------------------9------------------------|
|--R-----------0-0-0--0----0---0--0-0-0-----0-0-0-----------------|
|--------------0-0-0--0--3---3----0-0-0-----0-0-0--5--7/8--10--4--|
|--2-----------0-0-0--0-----------0-0-0-----0-0-0-----------------|
pm             . . .  .           . . .     . . .
|------------------------------------------------------------------|
|----------------------------------------6-------------------------|
|----------------------------------------9-------------------------|
|--0-0-0-------0-0-0--0----0---0--0-0-0-----0-0-0------------------|
|--0-0-0--5-5--0-0-0--0--3---3----0-0-0-----0-0-0--5--7/8--10--4*--|
|--0-0-0-------0-0-0--0-----------0-0-0-----0-0-0------------------|
pm . . .       . . .  .           . . .     . . .
|-----------------------------------------------------------|
|------------------------------------------6p5p0------------|
|---------------------------------^---------------5h7p0-----|
|--0-0-0-------0-0-0-0---0-0-0-0--5----------------------7--|
|--0-0-0--5-5--0-0-0-0---0-0-0-0----------------------------|
|--0-0-0-------0-0-0-0---0-0-0-0----------------------------|
pm . . .       . . . .   . . . .

|------------------------------------|
|------------------------------------|
|--3-3-3-3-3-3-3-3--2-2-2-2-2-2-2-2--|
|--3-3-3-3-3-3-3-3--2-2-2-2-2-2-2-2--|
|--1-1-1-1-1-1-1-1--0-0-0-0-0-0-0-0--|
|------------------------------------|

|------------------------------------|
|------------------------------------|
|--5-5-5-5-5-5-5-5--7-7-7-7-7-7-7-7--|
|--5-5-5-5-5-5-5-5--7-7-7-7-7-7-7-7--|
|--3-3-3-3-3-3-3-3--5-5-5-5-5-5-5-5--|
|------------------------------------|

|----------------------------------------|
|----------------------------------------|
|--5-5----------2-2----------------------|
|------2-2--3-3-----2-2--3-3--5--3--2----|
|-------------------------------------3--|
|----------------------------------------|

|----------------------------------------|
|----------------------------------------|
|--5-5----------2-2----------------------|
|------2-2--3-3-----2-2--3-3--5--3--2----|
|-------------------------------------3--|
|----------------------------------------|

|-------------------------|
|-------------------------|
|----------2h5------------|
|--3p2----------3-2--3p2--|
|------3h5----------------|
|-------------------------|

|--------------------------------------|
|--------------------------------------|
|----------2h5-------------------------|
|--3p2----------3-2--3-5-3-2--3-5-3-2--|
|------3h5-----------------------------|
|--------------------------------------|

|--------------------------------|
|-------------10p13--------------|
|--10p9--------------10-9--10p9--|
|-------10h12--------------------|
|--------------------------------|
|--------------------------------|

|--------------------------------------------------|
|-------------10h13--------------------------------|
|--10p9--------------10-9--10-12-10-9--10-12-10-9--|
|-------10h12--------------------------------------|
|--------------------------------------------------|
|--------------------------------------------------|

|------------------------------------------------|
|------------------------------------------------|
|------------2-----------------------------------|
|--3---3---------3-3---3---3h5p3p2---2--2--2--2--|
|----5---5-5---5-----5---5-----------------------|
|------------------------------------------------|
pm   .   . .   .     .   .
|------------------------------------------------|
|------------------------------------------------|
|------------2-----------------------3--------5--|
|--3---3---------3-3---3---3h5p3p2---3---/5---5--|
|----5---5-5---5-----5---5-----------1--------3--|
|------------------------------------------------|
pm   .   . .   .     .   .

CHORUS
|-----------------------------------|\
|-----------------------------------| |
|-----------------------------------| |
|--0-0-0-0-0-0-0-0-0-0-0-0-0-0-0-0--| |
|--0-0-0-0-0-0-0-0-0-0-0-0-0-0-0-0--| |
|--0-0-0-0-0-0-0-0-0-0-0-0-0-0-0-0--| |
						  |
|------------------------------------||
|------------------------------------||
|------------------------------------||
|------------------------------------||
|------------------------------------||
|--5-5-5-5-5-5-5-5--7-7-7-7-7-7-7-7--||REPEAT
						  |
|-----------------------------------| |
|-----------------------------------| |
|-----------------------------------| |
|--0-0-0-0-0-0-0-0-0-0-0-0-0-0-0-0--| |
|--0-0-0-0-0-0-0-0-0-0-0-0-0-0-0-0--| |
|--0-0-0-0-0-0-0-0-0-0-0-0-0-0-0-0--| |
						  |
|--------------------------------|    |
|--------------------------------|    |
|--------------------------------|   /
|-----------------------------3--|  /
|-----------------------------3--| /
|--8-8-8-8-8-8--5-5-5-5-5--x--3--|/

(Hard to hear lead bit, I think its something like this)
|--13p12-----------------------13p12-----------------------|
|---------10h13---------10-13---------10h13---------10-13--|
|----------------10h12-----------------------10h12---------|X4
|----------------------------------------------------------|
|----------------------------------------------------------|
|----------------------------------------------------------|

|---------------------------------------------------|\
|--10-10-10-10-10-10-10-10-10-10-10-10-10-10-10-10--||
|--10-10-10-10-10-10-10-10-10-10-10-10-10-10-10-10--||
|---8--8--8--8--8--8--8--8--8--8--8--8--8--8--8--8--||X2
|---8--8--8--8--8--8--8--8--8--8--8--8--8--8--8--8--||
|---8--8--8--8--8--8--8--8--8--8--8--8--8--8--8--8--|/

|---------------------------------------------------|\
|--10-10-10-10-10-10-10-10-10-10-10-10-10-10-10-10--||
|--10-10-10-10-10-10-10-10-10-10-10-10-10-10-10-10--||
|---0--0--0--0--0--0--0--0--0--0--0--0--0--0--0--0--||X2
|---0--0--0--0--0--0--0--0--0--0--0--0--0--0--0--0--||
|---0--0--0--0--0--0--0--0--0--0--0--0--0--0--0--0--|/

|---------------------------------------------------|
|--10-10-10-10-10-10-10-10-10-10-10-10-10-10-10-10--|
|--10-10-10-10-10-10-10-10-10-10-10-10-10-10-10-10--|
|---8--8--8--8--8--8--8--8--8--8--8--8--8--8--8--8--|
|---8--8--8--8--8--8--8--8--8--8--8--8--8--8--8--8--|
|---8--8--8--8--8--8--8--8--8--8--8--8--8--8--8--8--|

|---------------------------------------------------|
|--10-10-10-10-10-10-10-10-10-10-10-10------P-------|
|--10-10-10-10-10-10-10-10-10-10-10-10------A-------|
|---8--8--8--8--8--8--8--8--8--8--8--8------U-------|
|---8--8--8--8--8--8--8--8--8--8--8--8------S-------|
|---8--8--8--8--8--8--8--8--8--8--8--8------E-------|

|---------------------------------------------------|
|--10-10-10-10-10-10-10-10-10-10-10-10-10-10-10-10--|
|--10-10-10-10-10-10-10-10-10-10-10-10-10-10-10-10--|
|---0--0--0--0--0--0--0--0--0--0--0--0--0--0--0--0--|
|---0--0--0--0--0--0--0--0--0--0--0--0--0--0--0--0--|
|---0--0--0--0--0--0--0--0--0--0--0--0--0--0--0--0--|

|--------------------------------------------|
|--10-10-10-10-10-10-10-10-------------------|
|--10-10-10-10-10-10-10-10--5-5-5-5-5-5-5-5--|
|---0--0--0--0--0--0--0--0--x-x-x-x-x-x-x-x--|
|---0--0--0--0--0--0--0--0--3-3-3-3-3-3-3-3--|
|---0--0--0--0--0--0--0--0-------------------|

|------------------------------------------------------------------|\
|--10------13---10------13---10------13---10------13---10------13--||
|-----9/10---------9/10---------9/10---------9/10---------9/10-----||
|------------------------------------------------------------------||X2
|------------------------------------------------------------------||
|------------------------------------------------------------------|/

|------------------12-12-12-12-12-12-13-13-13-13-13-13-13-13-13--|
|--10------13---13-------------------13-13-13-13-13-13-13-13-13--|
|-----9/10-------------------------------------------------------|
|----------------------------------------------------------------|
|----------------------------------------------------------------|
|----------------------------------------------------------------|

|-----------------------------------------------------|
|--10------13---10------13---10------13---10------13--|
|-----9/10---------9/10---------9/10---------9/10-----|
|-----------------------------------------------------|
|-----------------------------------------------------|
|-----------------------------------------------------|

|-------|
|--G----|
|--T----|
|--R----|
|-------|
|--2----|

BREAKDOWN
|----------------------------------------|
|----------------------------------------|
|----------------------------------------|
|--12\--0---0-0-0--0-0-0---0-0-0--0-0-0--|
|--12\--0---0-0-0--0-0-0---0-0-0--0-0-0--|
|--12\--0---0-0-0--0-0-0---0-0-0--0-0-0--|
pm      .   . . .  . . .   . . .  . . .

|-------------------------------------------------------|
|-------------------------------------------------------|
|-------------------------------------------------------|
|--0--0--0--0-0-0--0-0-0----T------T------T------T------|
|--0--0--0--0-0-0--0-0-0---12-5h8-12-5h7-12-5h8-12-5h7--|
|--0--0--0--0-0-0--0-0-0--------------------------------|
pm .  .  .  . . .  . . .

|-----------------------------------|
|-----------------------------------|
|-----------------------------------|
|--0---0-0-0--0-0-0---0-0-0--0-0-0--|
|--0---0-0-0--0-0-0---0-0-0--0-0-0--|
|--0---0-0-0--0-0-0---0-0-0--0-0-0--|
pm .   . . .  . . .   . . .  . . .

|-----------------------------------------------------|
|-----------------------------------------------------|
|-----------------------------------------------------|
|--0--0--0--0-0-0--0-0-0---7-7-7----------------------|
|--0--0--0--0-0-0--0-0-0----------5-5-5--8-8-8-8------|
|--0--0--0--0-0-0--0-0-0-------------------------2-2--|
pm .  .  .  . . .  . . .

BREAKDOWN (ABRUPT)
|-----------------------------------|
|-----------------------------------|
|-----------------------------------|
|--0---0-0-0--0-0-0---0-0-0--0-0-0--|
|--0---0-0-0--0-0-0---0-0-0--0-0-0--|
|--0---0-0-0--0-0-0---0-0-0--0-0-0--|
pm .   . . .  . . .   . . .  . . .

|-------------------------------------------------------|
|-------------------------------------------------------|
|-------------------------------------------------------|
|--0--0--0--0-0-0--0-0-0----T------T------T------T------|
|--0--0--0--0-0-0--0-0-0---12-5h8-12-5h7-12-5h8-12-5h7--|
|--0--0--0--0-0-0--0-0-0--------------------------------|
pm .  .  .  . . .  . . .

|-----------------------------------|
|-----------------------------------|
|-----------------------------------|
|--0---0-0-0--0-0-0---0-0-0--0-0-0--|
|--0---0-0-0--0-0-0---0-0-0--0-0-0--|
|--0---0-0-0--0-0-0---0-0-0--0-0-0--|
pm .   . . .  . . .   . . .  . . .

|---------------------------------------------------------|
|---------------------------------------------------------|
|---------------------------------------------------------|
|--0--0--0--0-0-0--0-0-0---7-7-7-----------------------0--|
|--0--0--0--0-0-0--0-0-0----------5-5-5--8-8-8-8--4-4--0--|
|--0--0--0--0-0-0--0-0-0-------------------------------0--|
pm    .  .  . . .  . . .

Gtr 2 (Left Speaker)
-----------------------------------------------------------------------
INTRO
|----------|-----------|
|--G-------|--G--------|
|--T-------|--T--------|
|--R-------|--R--------|
|----------|-----------|
|--1-------|--1--------|

|---------------------------------------------------------------------|
|--10p8---------8--11-10-8h10p8------10p8---------8--11-10-8h10p8-----|
|-------10-9-10-----------------10--------10-9-10-----------------10--|
|---------------------------------------------------------------------|
|---------------------------------------------------------------------|
|---------------------------------------------------------------------|

|-----------------------------------|
|-----------------------------------|
|------5-----5-----5-----5-----5----|
|----3-----3-----3-----3-----3---3--|
|--5-----0-----1-----1-----1--------|
|-----------------------------------|

|----------------------------------------------------|
|----------------------------------------------------|
|--10-10-10-10-10-10--12-12-12-12-12-12-12-12-12-12--|
|---x--x--x--x--x--x---x--x--x--x--x--x--x--x--x--x--|
|---8--8--8--8--8--8--10-10-10-10-10-10-10-10-10-10--|
|----------------------------------------------------|

|---------------------------------------------------------------------|
|--10p8---------8--11-10-8h10p8------10p8---------8--11-10-8h10p8-----|
|-------10-9-10-----------------10--------10-9-10-----------------10--|
|---------------------------------------------------------------------|
|---------------------------------------------------------------------|
|---------------------------------------------------------------------|

|-----------------------------------|
|-----------------------------------|
|------5-----5-----5-----5-----5----|
|----3-----3-----3-----3-----3---3--|
|--5-----0-----1-----1-----1--------|
|-----------------------------------|

|----------------------------------------------------|
|----------------------------------------------------|
|--10-10-10-10-10-10--12-12-12-12-12-12-12-12-12-12--|
|---x--x--x--x--x--x---x--x--x--x--x--x--x--x--x--x--|
|---8--8--8--8--8--8--10-10-10-10-10-10-10-10-10-10--|
|----------------------------------------------------|

VERSE 1
|----------------------------------------------------|\
|----------------------------------------------------||
|------------------------------------2--------2------||
|--3-3-LET RING----3-3-LET RING--------3--------3/5--||X2
|--5-5-------------0-0-----------0-1------0-3--------||
|----------------------------------------------------|/
PRE-CHORUS
|---------------------------------------------------|
|---8--8--8--8--8--8--8--8--8--8--8--8--8--8--8--8--|
|--10-10-10-10-10-10-10-10-10-10-10-10-10-10-10-10--|
|---------------------------------------------------|
|---------------------------------------------------|
|---------------------------------------------------|

|---------------------------------------------------|
|---------------------------------------------------|
|---9--9--9--9--9--9--9--9--9--9--9--9--9--9--9--9--|
|--10-10-10-10-10-10-10-10-10-10-10-10-10-10-10-10--|
|---------------------------------------------------|
|---------------------------------------------------|

|---------------------------------------------------|
|---8--8--8--8--8--8--8--8--8--8--8--8--8--8--8--8--|
|--10-10-10-10-10-10-10-10-10-10-10-10-10-10-10-10--|
|---------------------------------------------------|
|---------------------------------------------------|
|---------------------------------------------------|

|-------------------------------------------------|
|-------------------------------------------------|
|---9--9--9--9--9--9--9--9--9h10p9-----9----9h10--|
|--10-10-10-10-10-10-10-10----------10---10-------|
|-------------------------------------------------|
|-------------------------------------------------|
pm                                  ..   ..

CHORUS
|-----------------------------------|\
|-----------------------------------| |
|-----------------------------------| |
|--0-0-0-0-0-0-0-0-0-0-0-0-0-0-0-0--| |
|--0-0-0-0-0-0-0-0-0-0-0-0-0-0-0-0--| |
|--0-0-0-0-0-0-0-0-0-0-0-0-0-0-0-0--| |
						  |
|------------------------------------||
|------------------------------------||
|------------------------------------||
|------------------------------------||
|------------------------------------||
|--5-5-5-5-5-5-5-5--7-7-7-7-7-7-7-7--||REPEAT
						  |
|-----------------------------------| |
|-----------------------------------| |
|-----------------------------------| |
|--0-0-0-0-0-0-0-0-0-0-0-0-0-0-0-0--| |
|--0-0-0-0-0-0-0-0-0-0-0-0-0-0-0-0--| |
|--0-0-0-0-0-0-0-0-0-0-0-0-0-0-0-0--| |
						  |
|--------------------------------|    |
|--------------------------------|    |
|--------------------------------|   /
|-----------------------------3--|  /
|-----------------------------3--| /
|--8-8-8-8-8-8--5-5-5-5-5--x--3--|/

VERSE 2
|-------------------------------------------------------------|
|-------------------------------------------------------------|
|--------7-------------2--------------------------------------|
|--0-----x---0--0-0-0----3--0--0-0-0--5-5--3-3--2--3--0-------|
|--0-----5---0--0-0-0-------0--0-0-0---------------------3/5--|
|--0---------0--0-0-0-------0--0-0-0--------------------------|
pm           .  . . .       .  . . .  . .  . .  .  .  .
|-----------------------------------------------------|
|-----------------------------------------------------|
|--------------------5--------------------------------|
|--3--3-3-3--3p2--0-----3---0h3--0--2--5--0--7--------|
|--1--1-1-1-------------------------------------4--4--|
|-----------------------------------------------------|
pm .  . . .
|---------------------------------------------------|\
|-------------G-------------------------------------| \
|-------------T-------------------------------------|  \
|--0--0-0-0---R---0--0-0-0--5-5--3-3--2--3--0-------|  |
|--0--0-0-0-------0--0-0-0---------------------3/5--|  |
|--0--0-0-0---2---0--0-0-0--------------------------|  |
pm .  . . .       .  . . .  . .  . .  .  .  .		 |REPEAT
|-----------------------------------------------------||
|-----------------------------------------------------||
|--------------------5--------------------------------||
|--3--3-3-3--3p2--0-----3---0h3--0--2--5--0--7--------||
|--1--1-1-1-------------------------------------4--4--||
|-----------------------------------------------------|/
pm    . . . 
|-----------------------------------------------------------------|
|----------------------------------------6------------------------|
|----------------------------------------9------------------------|
|--0-0-0-------0-0-0--0----0---0--0-0-0-----0-0-0-----------------|
|--0-0-0--5-5--0-0-0--0--3---3----0-0-0-----0-0-0--5--7/8--10--1--|
|--0-0-0-------0-0-0--0-----------0-0-0-----0-0-0-----------------|
pm . . .       . . .  .           . . .     . . .
|-------------------------------------------------------------------|
|----------------------------------------6--------------------------|
|----------------------------------------9--------------------------|
|--0-0-0-------0-0-0--0----0---0--0-0-0-----0-0-0--------------10*--|
|--0-0-0--5-5--0-0-0--0--3---3----0-0-0-----0-0-0--5--7/8--10-------|
|--0-0-0-------0-0-0--0-----------0-0-0-----0-0-0-------------------|
pm . . .       . . .  .           . . .     . . .
|-----------------------------------------------------------|
|------------------------------------------10p8p0-----------|
|---------------------------------^---------------9h10p0----|
|--0-0-0-------0-0-0-0---0-0-0-0--5----------------------7--|
|--0-0-0--5-5--0-0-0-0---0-0-0-0----------------------------|
|--0-0-0-------0-0-0-0---0-0-0-0----------------------------|
pm . . .       . . . .   . . . .

|------------------------------------|  \
|------------------------------------|    \
|------------------------------------|      \
|--8-8-8-8-8-8-8-8--7-7-7-7-7-7-7-7--|        \
|--8-8-8-8-8-8-8-8--7-7-7-7-7-7-7-7--|          \
|--8-8-8-8-8-8-8-8--7-7-7-7-7-7-7-7--|	 	   \	
								     \X4
|----------------------------------------------------||
|----------------------------------------------------||
|----------------------------------------------------||
|--10-10-10-10-10-10-10-10--12-12-12-12-12-12-12-12--||
|--10-10-10-10-10-10-10-10--12-12-12-12-12-12-12-12--||
|--10-10-10-10-10-10-10-10--12-12-12-12-12-12-12-12--|/

|------------------------------------------------0--0--0--0---|
|------------------------------------------------0--0--0--0--|
|--10-10-10--9-9-9--10-10-10--9-9-9--10h12p10p9--9--9--9--9--|
|------------------------------------------------------------|
|------------------------------------------------------------|
|------------------------------------------------------------|
pm .. .. ..  . . .  .. .. ..  . . .
|------------------------------------------------------------|
|------------------------------------------------------------|
|--10-10-10--9-9-9--10-10-10--9-9-9--10h12p10p9--10--9-------|
|-------------------------------------------------------11b--|
|------------------------------------------------------------|
|------------------------------------------------------------|
pm .. .. ..  . . .  .. .. ..  . . .

CHORUS
|-----------------------------------|\
|-----------------------------------| |
|-----------------------------------| |
|--0-0-0-0-0-0-0-0-0-0-0-0-0-0-0-0--| |
|--0-0-0-0-0-0-0-0-0-0-0-0-0-0-0-0--| |
|--0-0-0-0-0-0-0-0-0-0-0-0-0-0-0-0--| |
						  |
|------------------------------------||
|------------------------------------||
|------------------------------------||
|------------------------------------||
|------------------------------------||
|--5-5-5-5-5-5-5-5--7-7-7-7-7-7-7-7--||REPEAT
						  |
|-----------------------------------| |
|-----------------------------------| |
|-----------------------------------| |
|--0-0-0-0-0-0-0-0-0-0-0-0-0-0-0-0--| |
|--0-0-0-0-0-0-0-0-0-0-0-0-0-0-0-0--| |
|--0-0-0-0-0-0-0-0-0-0-0-0-0-0-0-0--| |
						  |
|--------------------------------|    |
|--------------------------------|    |
|--------------------------------|   /
|-----------------------------3--|  /
|-----------------------------3--| /
|--8-8-8-8-8-8--5-5-5-5-5--x--3--|/

|-----------------------------------|\
|-----------------------------------||
|-----------------------------------||
|--8-8-8-8-8-8-8-8-8-8-8-8-8-8-8-8--||
|--8-8-8-8-8-8-8-8-8-8-8-8-8-8-8-8--||
|--8-8-8-8-8-8-8-8-8-8-8-8-8-8-8-8--||
						 |
|-----------------------------------||
|-----------------------------------||
|-----------------------------------||
|--8-8-8-8-8-8-8-8-8-8-8-8-8-8-8-8--||
|--8-8-8-8-8-8-8-8-8-8-8-8-8-8-8-8--||
|--8-8-8-8-8-8-8-8-8-8-8-8-8-8-8-8--||
						 |X2
|-----------------------------------||
|-----------------------------------||
|-----------------------------------||
|--0-0-0-0-0-0-0-0-0-0-0-0-0-0-0-0--||
|--0-0-0-0-0-0-0-0-0-0-0-0-0-0-0-0--||
|--0-0-0-0-0-0-0-0-0-0-0-0-0-0-0-0--||
						 |
|-----------------------------------||
|-----------------------------------||
|-----------------------------------||
|--0-0-0-0-0-0-0-0-0-0-0-0-0-0-0-0--||
|--0-0-0-0-0-0-0-0-0-0-0-0-0-0-0-0--||
|--0-0-0-0-0-0-0-0-0-0-0-0-0-0-0-0--|/

|-----------------------------------|
|-----------------------------------|
|-----------------------------------|
|--8-8-8-8-8-8-8-8-8-8-8-8-8-8-8-8--|
|--8-8-8-8-8-8-8-8-8-8-8-8-8-8-8-8--|
|--8-8-8-8-8-8-8-8-8-8-8-8-8-8-8-8--|

|-----------------------------------|
|-----------------------------P-----|
|-----------------------------A-----|
|--8-8-8-8-8-8-8-8-8-8-8-8----U-----|
|--8-8-8-8-8-8-8-8-8-8-8-8----S-----|
|--8-8-8-8-8-8-8-8-8-8-8-8----E-----|

|-----------------------------------|
|-----------------------------------|
|-----------------------------------|
|--0-0-0-0-0-0-0-0-0-0-0-0-0-0-0-0--|
|--0-0-0-0-0-0-0-0-0-0-0-0-0-0-0-0--|
|--0-0-0-0-0-0-0-0-0-0-0-0-0-0-0-0--|

|------------------------------------|
|------------------------------------|
|-------------------5-5-5-5-5-5-5-5--|
|--0-0-0-0-0-0-0-0--x-x-x-x-x-x-x-x--|
|--0-0-0-0-0-0-0-0--3-3-3-3-3-3-3-3--|
|--0-0-0-0-0-0-0-0-------------------|

|------------------------------------|\
|------------------------------------||
|------------------5--------5--------||
|--0-------0-------5--------5--------||X2
|--0-------0-------3--------3--------||
|--0-------0-------------------------|/

|-----------------------------------|
|-----------------------------------|
|--3-------3-------5--------5-------|
|--3-------3-------5--------5-------|
|--1-------1-------3--------3-------|
|-----------------------------------|

|-----------------------------------|
|-----------------------------------|
|-----------------------------------|
|--0---0-0-0--0-0-0---0-0-0--0-0-0--|
|--0---0-0-0--0-0-0---0-0-0--0-0-0--|
|--0---0-0-0--0-0-0---0-0-0--0-0-0--|
pm .   . . .  . . .   . . .  . . .

|-----------------------------------------|\
|-----------------------------------------||
|-----------------------------------------||
|--0--0--0---0-0-0--0-0-0---0-0-0--0-0-0--||X3
|--0--0--0---0-0-0--0-0-0---0-0-0--0-0-0--||
|--0--0--0---0-0-0--0-0-0---0-0-0--0-0-0--|/
pm .  .  .   . . .  . . .   . . .  . . .

|----------------------------------|
|----------------------------------|
|--------------------^-^-^---------|
|--0--0-0-0--0-0-0---5-5-5--0-0-0--|
|--0--0-0-0--0-0-0----------0-0-0--|
|--0--0-0-0--0-0-0----------0-0-0--|
pm .  . . .  . . .          . . . 

BREAKDOWN
|----------------------------------------|
|----------------------------------------|
|----------------------------------------|
|--12\--0---0-0-0--0-0-0---0-0-0--0-0-0--|
|--12\--0---0-0-0--0-0-0---0-0-0--0-0-0--|
|--12\--0---0-0-0--0-0-0---0-0-0--0-0-0--|
pm      .   . . .  . . .   . . .  . . .

|-------------------------------------------------------|
|-------------------------------------------------------|
|-------------------------------------------------------|
|--0--0--0--0-0-0--0-0-0----T------T------T------T------|
|--0--0--0--0-0-0--0-0-0---12-5h8-12-5h7-12-5h8-12-5h7--|
|--0--0--0--0-0-0--0-0-0--------------------------------|
pm .  .  .  . . .  . . .

|-----------------------------------|
|-----------------------------------|
|-----------------------------------|
|--0---0-0-0--0-0-0---0-0-0--0-0-0--|
|--0---0-0-0--0-0-0---0-0-0--0-0-0--|
|--0---0-0-0--0-0-0---0-0-0--0-0-0--|
pm .   . . .  . . .   . . .  . . .

|------------------------------------------------------|
|------------------------------------------------------|
|------------------------------------------------------|
|--0--0--0--0-0-0--0-0-0---7-7-7-----------------------|
|--0--0--0--0-0-0--0-0-0----------5-5-5--8-8-8-8--4-4--|
|--0--0--0--0-0-0--0-0-0-------------------------------|
pm .  .  .  . . .  . . .

BREAKDOWN (ABRUPT)
|-----------------------------------|
|-----------------------------------|
|-----------------------------------|
|--0---0-0-0--0-0-0---0-0-0--0-0-0--|
|--0---0-0-0--0-0-0---0-0-0--0-0-0--|
|--0---0-0-0--0-0-0---0-0-0--0-0-0--|
pm .   . . .  . . .   . . .  . . .

|-------------------------------------------------------|
|-------------------------------------------------------|
|-------------------------------------------------------|
|--0--0--0--0-0-0--0-0-0----T------T------T------T------|
|--0--0--0--0-0-0--0-0-0---12-5h8-12-5h7-12-5h8-12-5h7--|
|--0--0--0--0-0-0--0-0-0--------------------------------|
pm .  .  .  . . .  . . .

|-----------------------------------|
|-----------------------------------|
|-----------------------------------|
|--0---0-0-0--0-0-0---0-0-0--0-0-0--|
|--0---0-0-0--0-0-0---0-0-0--0-0-0--|
|--0---0-0-0--0-0-0---0-0-0--0-0-0--|
pm .   . . .  . . .   . . .  . . .

|---------------------------------------------------------|
|---------------------------------------------------------|
|---------------------------------------------------------|
|--0--0--0--0-0-0--0-0-0---7-7-7-----------------------0--|
|--0--0--0--0-0-0--0-0-0----------5-5-5--8-8-8-8--4-4--0--|
|--0--0--0--0-0-0--0-0-0-------------------------------0--|
pm    .  .  . . .  . . .


            
            
Suggest correction
Creating personal tab
Creating personal tab
You can edit any tab online and save it as your Personal.

You can edit, replace or remove any tab part or add personal notes – all changes will be seen only by you.

Personal tabs can be accessed anytime from any device, even offline.
Learn more »
Give kudos to tab author, rate the tab!
1 2 3 4 5
comments
print report bad tab
guest
You may want to rate the tab now too:
select rating
Wanna post a correction for this tab? Suggest correction