Oops, an error
Loading. Please wait.

Falling Away Chords

version 1
version 1

Whole song

Interactive

24,044 views 54 this week
5 commentsread comments
1 2 3 4 5
x 17
add to favorites
launch autoscroll
font size
0
reset
transpose
0
reset
simplify chords
display chords
guitar tuner
Autoscroll
slow
fast
+/-
esc
set tempo
stop
Help us to improve Ultimate-Guitar.com Take our survey!
×
Author
Difficulty
intermediate
You can play this song in standard: EADGBE or in this alt tuning
DADGAD
I will name the chord for standard and tab for the alternative.

  
INTRO RIFF *TABBED out in standard tuning by Robawake

E|-----------------5/7-------------5--2----|
B|---5/7--3-0-2-3------3/5/7-0-2-3---------|
G|-----------------------------------------|
D|-----------------------------------------|
A|-----------------------------------------|
E|-----------------------------------------|

E|---------------5-------------------------|
B|---7-0-7-0-5-7---3-0-3-0-3-2-0-2-0-------|
G|-----------------------------------------|
D|-----------------------------------------|
A|-----------------------------------------|
E|-----------------------------------------|


[Intro]

Bm D

Bm D A/C#*(short duration)


[Verse]

Bm     D

Pre chorus: 

G A Bm A


[Chorus]

Bm D G A x2
Bm A G A
Bm A G


[Verse 2]

Bm D


Pre chorus: 

G A Bm A


[Chorus]

Bm D G A x2
Bm A G A
Bm A G


[Bridge]

Bm A G
Bm A D G
Bm A G
D   F#m


[Chorus]

Bm D G A (single strum)
Bm D G A (regular strum)
Bm A G A
Bm A G


[Outro]

Bm D G A x2
Bm


Alternative tuning chords:

   Bm    D    A*   A    G    F#m
D|--0----0----0----0----0----0-|
A|--0----0----0----0----0----0-|
G|--4----7----7----2----7---(7)|
D|--4----7----7----2----7----7-|
A|--2----5----4----0----5----4-|
D|----------------------5----4-|



************************************

| /    Slide up

************************************
Suggest correction
comments
print report bad tab
5 comments total. Showing first comments.
0 reply
Robawake 10 Jul 25, 2015 03:38 PM

                                  x3
E-----------------5/7---------------------
B---5/7--3-0-2-0------3/5/7-0-2-0---------
G-----------------------------------------
D-----------------------------------------
A-----------------------------------------
E-----------------------------------------

E---------------5-------------------------
B---7-0-7-0-5-7---3-0-3-0-3-2-0-2-0-------
G-----------------------------------------
D-----------------------------------------
A-----------------------------------------
E-----------------------------------------

you're gonna want to play this twice, and that's the whole intro riff. It's in standard tuning though.
you're welcome ^^

0 reply
Robawake 10 Jul 25, 2015 03:38 PM, edited at 03:56 pm

ss

0 reply
Robawake 10 Jul 25, 2015 04:00 PM

x3 (hard to hear but it actually goes like this)
E-----------------5/7-------------5--2----
B---5/7--3-0-2-3------3/5/7-0-2-3---------
G-----------------------------------------
D-----------------------------------------
A-----------------------------------------
E-----------------------------------------

E---------------5-------------------------
B---7-0-7-0-5-7---3-0-3-0-3-2-0-2-0-------
G-----------------------------------------
D-----------------------------------------
A-----------------------------------------
E-----------------------------------------

guest
You may want to rate the tab now too:
select rating
Wanna post a correction for this tab? Suggest correction