Oops, an error
Loading. Please wait.

Fate Tab

version 2
version 2

Acoustic

Interactive

39,585 views 87 this week
8 commentsread comments
1 2 3 4 5
excellent!
x 12
add to favorites
launch autoscroll
font size
0
reset
how to read this tab
guitar tuner
Tab Pro tools
  • play this tab
  • loop segment
  • change instrument
  • show fretboard
  • metronome
×
Best way to learn
"Fate"
Autoscroll
slow
fast
+/-
esc
set tempo
stop
Contributor
Difficulty
Capo
novice
3rd fret
-------------------------------------------------------------------------------
                        Fate (Acoustic) - Our Last Night
-------------------------------------------------------------------------------
Tabbed by: Michael Stabekis
E-mail: michael.stabekis@gmail.com

**EMAIL ME FOR ANY QUESTIONS OR IF I GOT SOMETHING WRONG. I AM 95% SURE THESE ARE CORRECT.

Tuning: EADF#AD [Capo 3; TABS RELATIVE TO CAPO]

Chords: (these aren't the fancy chord names, but 
         I am 100% sure they are the right chords.)

    D   A   A#  C   F   Am  Dm
________________________________
D | 0 | 0 | 0 | 0 | 0 | 2 | 0 |
A | 0 | 0 | 0 | 0 | 0 | 4 | 2 |
F#| 0 | 0 | 1 | 0 | 0 | 4 | 0 |
D | 0 | 0 | 0 | 0 | 0 | 4 | 0 |
A | 2 | 0 | 2 | 0 | 5 | 4 | 2 |
E | x | 2 | 3 | x | x | 2 | x |
________________________________

--------------------INTRO--------------------

--Lead-- 

D, A, A#, C (the first time, play through these once, then play the part below while rhythm continues)

D |---------------0-4-------------4-----0-4-------------4------------------------------0-4~-------|
A |-5p4-0---0-2h4-----5p4-0---------2-4-----5p4-0---------5--4--7p5p4-----------4--2h4-----5~-----|
F#|-------0---------------------0---------------------0---------------5-0-3~---3-3------------7~--|
D |-------------------------0h2-------------------0h2-------------------------4-------------------|
A |-----------------------------------------------------------------------------------------------|
E |-----------------------------------------------------------------------------------------------|

--Rhythm--

D, A, A#, C (x2) first time, (x1) second and third times.

-------------------PRE-CHORUS-----------------

This part is a little hard to hear, and is very brief, but it comes before the first two choruses.

--Lead--

D |--0--0--0--0--0--0--0--0--0--0--0--0--0------------------------------------|
A |--0--0--0--0--0--0--0--0--0--0--0--0--0------------------------------------|
F#|-12-12-12-12-12-12-12-12\10-10-10-10-10------------------------------------|
D |--0--0--0--0--0--0--0--0--0--0--0--0--0------------------------------------|
A |--9--9--9--9--9--9--9--9 \7--7--7--7--7------------------------------------|
E |---------------------------------------------------------------------------|

--Rhythm--

*no part here, only lead*

------------------BRIDGE II------------------

--Lead--
                              |-|sweep pick these 3; they should be the length of 2 normal
                                 notes in this section.
D |---------0-----------------------2--------2~-------------------------------|
A |-------2---2-------------------4---4------4~-------------------------------|
F#|-----0-------0---------------4-------4----4~-------------------------------|
D |---0-----------0------------4----------4--4~-------------------------------|
A |-2-------------------------4--------------4~-------------------------------|
E |-------------------------2----------------2~-------------------------------|

--Rhythm--

Dm, A#, Am (x2)

---------------------------------------------

LYRICS/CHORDS
( * next to a section or chord means lead 
    guitar only.
  && next to a section means the tabs are on
     the top of the page.
  {} brackets around a chord means strum it
     only one time.                           )

[INTRO &&]
[VERSE 1*]
D*
Am I meant to be something?
                        A*           A#*
Is this the song I'm supposed to sing?
               C*
These questions need answers.


D*
Is my life already scripted?
                      A*         A#*
If I need to can I change the words?
               C*
These questions need answers.


[PRE-CHORUS* &&]
[CHORUS]
        A#             C
Are we alone? Are we in control?
D                       C
Can we choose to play a different role?
A#         C         D           F
Can we change the grave that was dug for us,
A#       C
or is this the only path to take?


[INTRO && ]
[VERSE 2]
D
Are we meant to fall in love?
                         A       A#
And are we supposed to find the one?
               C
These questions need answers.


D
Are there choices around me,
                   A       A#
or am I stuck on a one-way road?
               C
These questions need answers.


[PRE-CHORUS* &&]
[CHORUS]
        A#             C
Are we alone? Are we in control?
D                       C
Can we choose to play a different role?
A#         C         D           F
Can we change the grave that was dug for us,
A#       C
or is this the only path to take?

[BRIDGE]
  there is no guitar here, but if you're playing this
  for an audience, or it sounds empty, you can play:

             Dm, A#, Am (x2)

[BRIDGE II &&]
Dm     A#           Am
Can we change the grave, 
    Dm             A#      Am
the grave that was dug for us?


       {A#}*        {C}*
Are we alone? Are we in control?
{D}*                   {C}*
Can we choose to play a different role?
A#        C         D            C
Can we change the grave that was dug for us,
A#       C         {C}
or is this the only path to take?

[INTRO x2 &&]

End on D (I like to play the 12th fret Natural harmonic on the
          top 4 strings, but that's just me. 15th with capo. )

**************************************
Key:

h = hammer-on
p = pull-off
x = mute string
/ = slide up
\ = slide down
~ = let ring
* = lead guitar only
&&= (next to a section) tabs at top of page
{}= (around a chord) strum once

**************************************
comments
print report bad tab
8 comments total. Showing first comments.
+1 reply
AdamGuion wrote on March 21 2013, 11:12 pm

THANK YOU! I was hoping a tab for this would come out soon. I'm not too good at acoustic but this song completely changed my mind.

+1 reply
juantrix wrote on March 22 2013, 08:42 pm

please do a guitar pro version of this song... i love it

+1 reply
marcusien wrote on March 23 2013, 07:32 am

Sorry but it's not 100% correct

your 'C' chords is wrong, you forgot the "2" on the D string

otherwise it's a very nice tab

I want to post or [tab]
guest
You may want to rate the tab now too:
select rating
Please do not post tabs as comments. Select "correction" instead!