Oops, an error
Loading. Please wait.

Home tab

version 1
version 1

Whole song

Interactive

757 views 21 this week
no commentswrite comment
1 2 3 4 5
x 4
add to favorites
×
Save as Personal and add changes to this tab that will be seen only by you. Learn more ›
×
You can save this tab as Personal to edit and correct it or add notes. All changes will be seen only by you. Learn more »
launch autoscroll
font size
0
reset
how to read this tab
guitar tuner
edit
Autoscroll
slow
fast
+/-
esc
set tempo
stop
“Home” by Our Last Night
7 String - Drop A Tuning

[Intro]
(Rhythm gtr)
E|--------------------------------------------------------------------------------| x2
B|--------------------------------------------------------------------------------|
G|--------------------------------------------------------------------------------|
D|--------------------------------------------------------------------------------|
A|-------------------7-------9-----9----7--7--7--(7)-7--(7)-6--6--6--(6)-6--6--6--|
E|-------------------7-----7-----7---7--4--4--4--(4)-4--(4)-2--2--2--(2)-2--2--2--|
A|-00-0-0(00)0-(000)-7---7-----7--------4--4--4--(4)-4--(4)-2--2--2--(2)-2--2--2--|

(Lead gtr)
E|---------9------------------------------------------| x2
B|--5----5---9---7----5----5-7-9---5-7-9---7-5-4------|
G|----------------------------------------------------|
D|----------------------------------------------------|
A|----------------------------------------------------|
E|----------------------------------------------------|
A|----------------------------------------------------|

[Verse]
(Rhythm gtr)
E|-----------0--0-0--0-----------0--0--0-----------0--0-0---0---0---|
B|-----------5--5-5--5-----------4--4--5-----------5--5-5/7-4---2---|
G|------------------------------------------------------------------|
D|------------------------------------------------------------------|
A|----------------------7-7-(77)------------------------------------|
E|----------------------7-7-(77)------------------------------------|
A|--0--(0)0-------------7-7-(77)----------4--(4)4-------------------|

E|-----------0--0-0--0-----------0--0--0--0--|
B|-----------5--5-5--5-----------4--4--5--7--|
G|-------------------------------------------|
D|-------------------------------------------|
A|----------------------7-7-(77)-------------|
E|----------------------7-7-(77)-------------|
A|--0--(0)0-------------7-7-(77)-------------|

[Transition to chorus]
(Clean gtr 1)
E|--------4-----4---------4-----4---------------------|
B|--5---5-----5-----5---5-----5-----------------------|
G|----6-----6-----6---6-----6-----6-------------------|
D|----------------------------------------------------|
A|----------------------------------------------------|
E|----------------------------------------------------|
A|----------------------------------------------------|

(Clean gtr 2)
E|-----------12-------12-------------12-------12------|
B|--14----14-------14-------14----14-------14---------|
G|-----13-------13-------13----13-------13-------13---|
D|----------------------------------------------------|
A|----------------------------------------------------|
E|----------------------------------------------------|
A|----------------------------------------------------|

[Chorus]
(Rhythm gtr)
E|--0-0-0-0-0-0-0-0--0-0-0-0-0-0-0-0--0-0-0-0-0-0-0-0--0-0-0-0-0-0-0-0-------------|
B|--0-0-0-0-0-0-0-0--0-0-0-0-0-0-0-0--0-0-0-0-0-0-0-0--0-0-0-0-0-0-0-0-------------|
G|--2-2-2-2-2-2-2-2--9-9-9-9-9-9-9-9--6-6-6-6-6-6-6-6--4-4-4-4-4-4-4-4-------------|
D|--2-2-2-2-2-2-2-2--9-9-9-9-9-9-9-9--6-6-6-6-6-6-6-6--4-4-4-4-4-4-4-4-------------|
A|--0-0-0-0-0-0-0-0--7-7-7-7-7-7-7-7--4-4-4-4-4-4-4-4--2-2-2-2-2-2-2-2-------------|
E|---------------------------------------------------------------------------------|
A|---------------------------------------------------------------------------------|

E|--0-0-0-0-0-0-0-0--0-0-0-0-0-0-0-0--0-0-0-0-0-0-0-0--0--0--0--0--0--0--0--0----|
B|--0-0-0-0-0-0-0-0--0-0-0-0-0-0-0-0--0-0-0-0-0-0-0-0--0--0--0--0--0--0--0--0----|
G|--2-2-2-2-2-2-2-2--6-6-6-6-6-6-6-6--4-4-4-4-4-4-4-4--11-11-11-11-11-11-11-11---|
D|--2-2-2-2-2-2-2-2--6-6-6-6-6-6-6-6--4-4-4-4-4-4-4-4--11-11-11-11-11-11-11-11---|
A|--0-0-0-0-0-0-0-0--4-4-4-4-4-4-4-4--2-2-2-2-2-2-2-2--9--9--9--9--9--9--9--9----|
E|-------------------------------------------------------------------------------|
A|-------------------------------------------------------------------------------|

E|--0-0-0-0-0-0-0-0--0-0-0-0-0-0-0-0--0-0-0-0-0-0-0-0--0-0-0-0-0-0-0-0-------------|
B|--0-0-0-0-0-0-0-0--0-0-0-0-0-0-0-0--0-0-0-0-0-0-0-0--0-0-0-0-0-0-0-0-------------|
G|--2-2-2-2-2-2-2-2--9-9-9-9-9-9-9-9--6-6-6-6-6-6-6-6--4-4-4-4-4-4-4-4-------------|
D|--2-2-2-2-2-2-2-2--9-9-9-9-9-9-9-9--6-6-6-6-6-6-6-6--4-4-4-4-4-4-4-4-------------|
A|--0-0-0-0-0-0-0-0--7-7-7-7-7-7-7-7--4-4-4-4-4-4-4-4--2-2-2-2-2-2-2-2-------------|
E|---------------------------------------------------------------------------------|
A|---------------------------------------------------------------------------------|


E|--0-------0---0---0--0---0----0---------0-------------------------|
B|--0-------0---0---0--0---0----0---------0-------------------------|
G|--2-------2---2/6-6--6---6----4---------4-------------------------|
D|--2-------2---2/6-6--6---6----4---------4-------------------------|
A|--0--(0)--0----------4---4----2---(2)---2-------------------------|
E|-----(0)-------------4---4----2---(2)---2-------------------------|
A|-----(0)-------------4---4----2---(2)---2---2-9--9--9-9h11-11-11--|

(Lead)
E|--------------------------------------------------------------------------------|
B|--/14----12--12/17---17---16----/14----12--12/17---17---16-16-16-16-19-19-19-19-|
G|--------------------------------------------------------------------------------|
D|--------------------------------------------------------------------------------|
A|--------------------------------------------------------------------------------|
E|--------------------------------------------------------------------------------|
A|--------------------------------------------------------------------------------|

[Instrumental]
(repeat Intro)

(Rhythm gtr)
E|--------------------------------------------------------------------------------| x2
B|--------------------------------------------------------------------------------|
G|--------------------------------------------------------------------------------|
D|--------------------------------------------------------------------------------|
A|-------------------7-------9-----9----7--7--7--(7)-7--(7)-6--6--6--(6)-6--6--6--|
E|-------------------7-----7-----7---7--4--4--4--(4)-4--(4)-2--2--2--(2)-2--2--2--|
A|-00-0-0(00)0-(000)-7---7-----7--------4--4--4--(4)-4--(4)-2--2--2--(2)-2--2--2--|

(Lead gtr)
E|---------9------------------------------------------| x2
B|--5----5---9---7----5----5-7-9---5-7-9---7-5-4------|
G|----------------------------------------------------|
D|----------------------------------------------------|
A|----------------------------------------------------|
E|----------------------------------------------------|
A|----------------------------------------------------|

[Verse 2]
(Rhythm gtr) x2
E|----------0--0-0--0----------0--0--0---------0--0-0---0---0-------0-0-------0-0-0-|
B|----------5--5-5--5----------4--4--5---------5--5-5/7-4---2-------4-4-------4-4-4-|
G|------------------------------------------------------------------4-4-------4-4-4-|
D|------------------------------------------------------------------4-4-------4-4-4-|
A|--------------------7-7-(77)--------------------------------(2-2)-2-2-(2-2)-2-2-2-|
E|--------------------7-7-(77)--------------------------------(2-2)-2-2-(2-2)-2-2-2-|
A|--0--(0)0-----------7-7-(77)---------4--(4)4----------------(2-2)-2-2-(2-2)-2-2-2-|

[Verse pull off riff]
E|----------------------------------------------------------------------------------|
B|----------------------------------------------------------------------------------|
G|----------------------------------------------------------------------------------|
D|----------------------------------------------------------------------------------|
A|--16p0-0-16p0-12h16-16p0-16p0-11p0-11p0-------------------------------------------|
E|----------------------------------------(0-0)-16p0-16p0-(0-0-0-0)-14p0-14p0-(0-0)-|
A|----------------------------------------------------------------------------------|


E|------------------------------------------------------------------------|
B|------------------------------------------------------------------------|
G|------------------------------------------------------------------------|
D|------------------------------------------------------------------------|
A|--7p4-4-7p4-4-6h7-7p4-7p4-6p4-6p4---------------------------------------|
E|------------------------------------------------------------------------|
A|----------------------------------(2-2-2)-2--2-(2-2-2-2)-2-(2-2)-2------|

[Chorus]
(Rhythm gtr)
E|--0-0-0-0-0-0-0-0--0-0-0-0-0-0-0-0--0-0-0-0-0-0-0-0--0-0-0-0-0-0-0-0-------------|
B|--0-0-0-0-0-0-0-0--0-0-0-0-0-0-0-0--0-0-0-0-0-0-0-0--0-0-0-0-0-0-0-0-------------|
G|--2-2-2-2-2-2-2-2--9-9-9-9-9-9-9-9--6-6-6-6-6-6-6-6--4-4-4-4-4-4-4-4-------------|
D|--2-2-2-2-2-2-2-2--9-9-9-9-9-9-9-9--6-6-6-6-6-6-6-6--4-4-4-4-4-4-4-4-------------|
A|--0-0-0-0-0-0-0-0--7-7-7-7-7-7-7-7--4-4-4-4-4-4-4-4--2-2-2-2-2-2-2-2-------------|
E|---------------------------------------------------------------------------------|
A|---------------------------------------------------------------------------------|

E|--0-0-0-0-0-0-0-0--0-0-0-0-0-0-0-0--0-0-0-0-0-0-0-0--0--0--0--0--0--0--0--0----|
B|--0-0-0-0-0-0-0-0--0-0-0-0-0-0-0-0--0-0-0-0-0-0-0-0--0--0--0--0--0--0--0--0----|
G|--2-2-2-2-2-2-2-2--6-6-6-6-6-6-6-6--4-4-4-4-4-4-4-4--11-11-11-11-11-11-11-11---|
D|--2-2-2-2-2-2-2-2--6-6-6-6-6-6-6-6--4-4-4-4-4-4-4-4--11-11-11-11-11-11-11-11---|
A|--0-0-0-0-0-0-0-0--4-4-4-4-4-4-4-4--2-2-2-2-2-2-2-2--9--9--9--9--9--9--9--9----|
E|-------------------------------------------------------------------------------|
A|-------------------------------------------------------------------------------|

E|--0-0-0-0-0-0-0-0--0-0-0-0-0-0-0-0--0-0-0-0-0-0-0-0--0-0-0-0-0-0-0-0-------------|
B|--0-0-0-0-0-0-0-0--0-0-0-0-0-0-0-0--0-0-0-0-0-0-0-0--0-0-0-0-0-0-0-0-------------|
G|--2-2-2-2-2-2-2-2--9-9-9-9-9-9-9-9--6-6-6-6-6-6-6-6--4-4-4-4-4-4-4-4-------------|
D|--2-2-2-2-2-2-2-2--9-9-9-9-9-9-9-9--6-6-6-6-6-6-6-6--4-4-4-4-4-4-4-4-------------|
A|--0-0-0-0-0-0-0-0--7-7-7-7-7-7-7-7--4-4-4-4-4-4-4-4--2-2-2-2-2-2-2-2-------------|
E|---------------------------------------------------------------------------------|
A|---------------------------------------------------------------------------------|

E|--0-------0---0---0--0---0----0---------0-------------------------|
B|--0-------0---0---0--0---0----0---------0-------------------------|
G|--2-------2---2/6-6--6---6----4---------4-------------------------|
D|--2-------2---2/6-6--6---6----4---------4-------------------------|
A|--0--(0)--0----------4---4----2---(2)---2-------------------------|
E|-----(0)-------------4---4----2---(2)---2-------------------------|
A|-----(0)-------------4---4----2---(2)---2---2-9--9--9-9h11-11-11--|

(Lead)
E|--------------------------------------------------------------------------------|
B|--/14----12--12/17---17---16----/14----12--12/17---17---16-16-16-16-19-19-19-19-|
G|--------------------------------------------------------------------------------|
D|--------------------------------------------------------------------------------|
A|--------------------------------------------------------------------------------|
E|--------------------------------------------------------------------------------|
A|--------------------------------------------------------------------------------|

[Bridge]
(Clean Lead Gtr (palm muted) continues into outro)
E|--------------------------------------------------------------------------|
B|--14--14-14-14------12--12-12-12------------------------------------------|
G|----------------13----------------11--13--13-13-13------------------------|
D|----------------------------------------------------14--11--11-11-11--11--|
A|--------------------------------------------------------------------------|
E|--------------------------------------------------------------------------|
A|--------------------------------------------------------------------------|

E|--------------------------------------------------------------------------|
B|--14--14-14-14------12--12-12-12------------------------------------------|
G|----------------13----------------11--13--13-13-13------------------------|
D|----------------------------------------------------14--11--11-11-13--14--|
A|--------------------------------------------------------------------------|
E|--------------------------------------------------------------------------|
A|--------------------------------------------------------------------------|

(Rhythm gtr)
E|----------------------------------------------------|
B|----------------------------------------------------|
G|----------------------------------------------------|
D|----------------------------------------------------|
A|----------------------------------------------------|
E|---------4------------------------------------------|
A|--0-------------2------4------6----7----------------|

[Outro]
(Rhythm Gtr)
E|--------------------------------------------------------------------|
B|--------------------------------------------------------------------|
G|--------------------------------------------------------------------|
D|--------------------------------------------------------------------|
A|--------------------------------------------------------------------|
E|------------------------4-4-4---------------------------------------|
A|--0-0-0-0-0-0-0-0-0-0-0-------2-2-4-4-4-4-4-4-6-6-7-7-7-7-7-7-9-9---|

(Clean Outro)
E|--12----------12----------12----------12------------|
B|-----14----14----14----14----14----14----16----16---|
G|--------13----------13----------13----------13------|
D|----------------------------------------------------|
A|----------------------------------------------------|
E|----------------------------------------------------|
A|----------------------------------------------------|

E|--12----------12----------16----------16------------|
B|-----14----14----14----14----14----14----14----14---|
G|--------13----------13----------13----------13------|
D|----------------------------------------------------|
A|----------------------------------------------------|
E|----------------------------------------------------|
A|----------------------------------------------------|

[Ending]
(repeat bridge)
(Clean Lead Gtr (palm muted) continues into outro)
E|--------------------------------------------------------------------------|
B|--14--14-14-14------12--12-12-12------------------------------------------|
G|----------------13----------------11--13--13-13-13------------------------|
D|----------------------------------------------------14--11--11-11-11--11--|
A|--------------------------------------------------------------------------|
E|--------------------------------------------------------------------------|
A|--------------------------------------------------------------------------|

E|--------------------------------------------------------------------------|
B|--14--14-14-14------12--12-12-12------------------------------------------|
G|----------------13----------------11--13--13-13-13------------------------|
D|----------------------------------------------------14--11--11-11-13--14--|
A|--------------------------------------------------------------------------|
E|--------------------------------------------------------------------------|
A|--------------------------------------------------------------------------|

(Rhythm gtr)
E|----------------------------------------------------|
B|----------------------------------------------------|
G|----------------------------------------------------|
D|----------------------------------------------------|
A|----------------------------------------------------|
E|---------4------------------------------------------|
A|--0-------------2------4------6----7----------------|

 

************************************

| x    Dead note
| (n)  Palm muting
| /    Slide up
| h    Hammer-on
| p    Pull-off

************************************

            
            
Creating personal tab
Creating personal tab
You can edit any tab online and save it as your Personal.

You can edit, replace or remove any tab part or add personal notes – all changes will be seen only by you.

Personal tabs can be accessed anytime from any device, even offline.
Learn more »
comments
print report bad tab
guest
You may want to rate the tab now too:
select rating