Oops, an error
Loading. Please wait.

Reality Without You Tab

version 1
version 1

Acoustic

Interactive

12,602 views 75 this week
2 commentsread comments
1 2 3 4 5
x 8
add to favorites
launch autoscroll
font size
0
reset
how to read this tab
guitar tuner
Autoscroll
slow
fast
+/-
esc
set tempo
stop
Help us to improve Ultimate-Guitar.com Take our survey!
×
Author
Difficulty
Capo
intermediate
3rd fret
-------------------------------------------------------------------------------
                REALITY WITHOUT YOU (ACOUSTIC) - OUR LAST NIGHT
-------------------------------------------------------------------------------
Tabbed by: jayguitaronline
E-mail:jays_tabs_and_chords@icloud.com

Tuning: Standard (EADGBE)

Capo: 3rd Fret

--------------------------------------

Brief note on the C chord in this song:

Try adding a G note (3rd fret bass E string) to the C chord to fit the recording better

--------------------------------------


Intro x2 by itself, or x4 if playing under chords

e|---3----------3---------3-------2---------2---------2------|
B|------5----------5---------5-------3---------3---------3---|
G|---------4----------4-----------------4---------4----------|
D|-----------------------------------------------------------|
A|-----------------------------------------------------------|
E|-----------------------------------------------------------|

e|---2----------2---------2-------0---------0---------0------|
B|------3----------3---------3-------2---------2---------2---|
G|---------2----------2-----------------2---------2----------|
D|-----------------------------------------------------------|
A|-----------------------------------------------------------|
E|-----------------------------------------------------------|




[Intro]

Em Bm D A palm muted x2 then strummed normally x2


[Verse]

Em                               Bm
I should have seen it from the start,
A               G                            Em        
A fake love disguised as what I wanted in my heart
         Bm              A                    G
It was convincing enough, it was so easy to trust
Em              Bm                       A                          C
Oh, I just couldn’t resist, it was the look in your eyes and the grace of your lips
Em               Bm                  A                 G
You looked so different in the light that I’d been shining on you


[Chorus]

Em                          C 
You gave me heaven then you took it away
G                        D
You let me in but you said I couldn’t stay
Em               C
Now my feet are back on the ground
G                   D
And I’m stuck in a reality without you
Em              Bm
(Without you, without you)
D                           A
And now I’m stuck in a reality without you


[Verse]

Em                               Bm
I should have seen it from the start
                A                              G                            Em
That you would rip my heart to pieces and then throw it into the trunk of your car
              Bm                  A                       G                         Em
Drive to the edge of the city, erasing any trace we were together before you felt guilty
Em              Bm                       A                          C
Oh, I just couldn’t resist, it was the look in your eyes and the grace of your lips
Em               Bm                  A                 G
You looked so different in the light that I’d been shining on you


[Chorus]

Em                          C 
You gave me heaven then you took it away
G                        D
You let me in but you said I couldn’t stay
Em               C
Now my feet are back on the ground
G                   D
And I’m stuck in a reality without you
Em              Bm
(Without you, without you)
D                           A
And now I’m stuck in a reality without you


Em Bm D A


[Bridge]

            G              A        
I stepped into a house of lies, but I couldn’t see it
  Bm           D
Pretty faces hide dirty secrets
G          A              F#
I lost my soul along the way
            Bm    A        G
(I lost my soul along the way)
          G                 A                
You got into my system and found out how to cheat it
Bm                  D
I still play your game but I couldn’t beat it
G           A            Bm       C
it was too late to get away
 C
(It was too late to get away)


[Chorus]

Em                          C 
You gave me heaven then you took it away
G                        D
You let me in but you said I couldn’t stay
Em               C
Now my feet are back on the ground
G                   D
And I’m stuck in a reality without you
Em              Bm
(Without you, without you)
D                           A
And now I’m stuck in a reality without you


Em              Bm
(Without you, without you)
D                           A
And now I’m stuck in a reality without you


END
Suggest correction
comments
print report bad tab
2 comments total.
+1 reply
lafawafa 773 Sep 27, 2014 07:59 AM

For the first part in the intro, I think that this sounds better:

e|---3----------3---------3-----|
B|------5----------5---------5--|
G|---------4----------4---------|

than what you had:

e|---3----------3---------3-----|
B|------3----------3---------3--|
G|---------4----------4---------|

Other than that, great tab!

0 reply
jaystac 45 Nov 11, 2014 02:01 AM

Thanks lafawafa!! You're right, after revisiting what I tabbed, I did make a bit of an error there :P I have updated my tab with your suggestion :)

Cheers,

Jay

guest
You may want to rate the tab now too:
select rating
Wanna post a correction for this tab? Suggest correction