Oops, an error
Loading. Please wait.

Reality Without You Acoustic tab

version 1
version 1

Whole song

Interactive

16,082 views 75 this week
5 commentsread comments
1 2 3 4 5
x 13
add to favorites
×
Save as Personal and add changes to this tab that will be seen only by you. Learn more ›
×
You can save this tab as Personal to edit and correct it or add notes. All changes will be seen only by you. Learn more »
launch autoscroll
font size
0
reset
how to read this tab
guitar tuner
edit
Autoscroll
slow
fast
+/-
esc
set tempo
stop
-------------------------------------------------------------------------------
                REALITY WITHOUT YOU (ACOUSTIC) - OUR LAST NIGHT
-------------------------------------------------------------------------------
Tabbed by: jayguitaronline
E-mail:jays_tabs_and_chords@icloud.com

Tuning: Standard (EADGBE)

Capo: 3rd Fret

--------------------------------------

Brief note on the C chord in this song:

Try adding a G note (3rd fret bass E string) to the C chord to fit the recording better

--------------------------------------


Intro x2 by itself, or x4 if playing under chords

e|---3----------3---------3-------2---------2---------2------|
B|------5----------5---------5-------3---------3---------3---|
G|---------4----------4-----------------4---------4----------|
D|-----------------------------------------------------------|
A|-----------------------------------------------------------|
E|-----------------------------------------------------------|

e|---2----------2---------2-------0---------0---------0------|
B|------3----------3---------3-------2---------2---------2---|
G|---------2----------2-----------------2---------2----------|
D|-----------------------------------------------------------|
A|-----------------------------------------------------------|
E|-----------------------------------------------------------|




[Intro]

Em Bm D A palm muted x2 then strummed normally x2


[Verse]

Em                               Bm
I should have seen it from the start,
A               G                            Em        
A fake love disguised as what I wanted in my heart
         Bm              A                    G
It was convincing enough, it was so easy to trust
Em              Bm                       A                          C
Oh, I just couldn’t resist, it was the look in your eyes and the grace of your lips
Em               Bm                  A                 G
You looked so different in the light that I’d been shining on you


[Chorus]

Em                          C 
You gave me heaven then you took it away
G                        D
You let me in but you said I couldn’t stay
Em               C
Now my feet are back on the ground
G                   D
And I’m stuck in a reality without you
Em              Bm
(Without you, without you)
D                           A
And now I’m stuck in a reality without you


[Verse]

Em                               Bm
I should have seen it from the start
                A                              G                            Em
That you would rip my heart to pieces and then throw it into the trunk of your car
              Bm                  A                       G                         Em
Drive to the edge of the city, erasing any trace we were together before you felt guilty
Em              Bm                       A                          C
Oh, I just couldn’t resist, it was the look in your eyes and the grace of your lips
Em               Bm                  A                 G
You looked so different in the light that I’d been shining on you


[Chorus]

Em                          C 
You gave me heaven then you took it away
G                        D
You let me in but you said I couldn’t stay
Em               C
Now my feet are back on the ground
G                   D
And I’m stuck in a reality without you
Em              Bm
(Without you, without you)
D                           A
And now I’m stuck in a reality without you


Em Bm D A


[Bridge]

            G              A        
I stepped into a house of lies, but I couldn’t see it
  Bm           D
Pretty faces hide dirty secrets
G          A              F#
I lost my soul along the way
            Bm    A        G
(I lost my soul along the way)
          G                 A                
You got into my system and found out how to cheat it
Bm                  D
I still play your game but I couldn’t beat it
G           A            Bm       C
it was too late to get away
 C
(It was too late to get away)


[Chorus]

Em                          C 
You gave me heaven then you took it away
G                        D
You let me in but you said I couldn’t stay
Em               C
Now my feet are back on the ground
G                   D
And I’m stuck in a reality without you
Em              Bm
(Without you, without you)
D                           A
And now I’m stuck in a reality without you


Em              Bm
(Without you, without you)
D                           A
And now I’m stuck in a reality without you


END
Suggest correction
Creating personal tab
Creating personal tab
You can edit any tab online and save it as your Personal.

You can edit, replace or remove any tab part or add personal notes – all changes will be seen only by you.

Personal tabs can be accessed anytime from any device, even offline.
Learn more »
comments
print report bad tab
5 comments total. Showing first comments.
+1 reply
lafawafa 773 Sep 27, 2014 03:59 AM

For the first part in the intro, I think that this sounds better:

e|---3----------3---------3-----|
B|------5----------5---------5--|
G|---------4----------4---------|

than what you had:

e|---3----------3---------3-----|
B|------3----------3---------3--|
G|---------4----------4---------|

Other than that, great tab!

0 reply
scroller.canales 10 Mar 23, 2017 03:18 PM

e|---2----------2---------2-------0---------0---------0------|
B|------1----------1---------1-------2---------2---------2---|
G|---------2----------2-----------------3---------3----------|
D|-----------------------------------------------------------|
A|-----------------------------------------------------------|
E|-----------------------------------------------------------|

I think that this sounds better but i don't know, i'm a noob, maybe is because I'm playing in electric guitar

0 reply
scroller.canales 10 Mar 23, 2017 03:27 PM

Sorry

What you had:

e|---2----------2---------2-----|
B|------3----------3---------3--|
G|---------2----------3---------|

I think that this sounds better:

e|---1----------1---------1-----|
B|------2----------2---------2--|
G|---------3----------3---------|

guest
You may want to rate the tab now too:
select rating
Wanna post a correction for this tab? Suggest correction