Oops, an error
Loading. Please wait.

Reason To Love Acoustic tab

version 1
version 1

Whole song

Interactive

48,511 views 24 this week
1 commentread comment
1 2 3 4 5
x 13
add to favorites
×
Save as Personal and add changes to this tab that will be seen only by you. Learn more ›
×
You can save this tab as Personal to edit and correct it or add notes. All changes will be seen only by you. Learn more »
launch autoscroll
font size
0
reset
how to read this tab
guitar tuner
edit
Autoscroll
slow
fast
+/-
esc
set tempo
stop
Time for me to contribute to this amazing society! Might be a couple of errors
since i took it all by ear but it sounds alrite to me.

Capo on 4th, the last e string dropped to d. Everything is tabbed with the capo as
the starting point.


[Intro] riff 2x

d|-------------------7/9-------------------------------------------------------|
B|-------3---3/5-----------77-7---5--5--5--22-2h333----------------------------|
G|-----4-----------------------------------------------------------------------|
D|---------4-----7-------------------------------------------------------------|
A|-----------------------------------------------------------------------------|
E|-----------------------------------------------------------------------------|

This is just to show the chords, you gotta make up the strum pattern yourself :)

[Verse]

d|--------0----0-------------------------------------------------------------|
B|--------0----7----5--------------------------------------------------------|
G|---4----4----7----6--------------------------------------------------------|
D|---4----5----7----7--------------------------------------------------------|
A|---2----5----5----0--------------------------------------------------------|
E|--------3------------------------------------------------------------------|

[Pre Chorus:]

d|--0---0---0---0------------------------------------------------------------|
B|--2---0---0---x------------------------------------------------------------|
G|--2---4---4---6------------------------------------------------------------|
D|--2---4---5---7------------------------------------------------------------|
A|--0---2---5---7------------------------------------------------------------|
E|----------3---5------------------------------------------------------------|


[Chorus]

d|--0---0---0---0-------------------------------------------------------------|
B|--0---7---5---0-------------------------------------------------------------|
G|--4---7---6---4-------------------------------------------------------------|
D|--4---7---7---5-------------------------------------------------------------|
A|--2---5---0---5-------------------------------------------------------------|
E|--2---5-------3-------------------------------------------------------------|


On the end of the second chorus he just changes the bass on the last chord down
half a tone ( one fret)


[Bridge]

d|---0----0----0-------------------------------------------------------------|
B|---0----0----x-------------------------------------------------------------|
G|---0----4----6-------------------------------------------------------------|
D|---2----4----7-------------------------------------------------------------|
A|---2----2----7-------------------------------------------------------------|
E|-------------5-------------------------------------------------------------|

Then at the end of the bridge:

d|---0---0--0---0------------------------------------------------------------|
B|---0---0--0---x------------------------------------------------------------|
G|---4---4--4---6------------------------------------------------------------|
D|---5---5--5---7------------------------------------------------------------|
A|---5---5--5---7------------------------------------------------------------|
E|---0---2--3---5------------------------------------------------------------|

Cheers



************************************

| x  Dead note
| h  Hammer-on
| /  Slide up

************************************

            
            
Suggest correction
Creating personal tab
Creating personal tab
You can edit any tab online and save it as your Personal.

You can edit, replace or remove any tab part or add personal notes – all changes will be seen only by you.

Personal tabs can be accessed anytime from any device, even offline.
Learn more »
comments
print report bad tab
1 comment total.
0 reply
pabrasey 10 Sep 02, 2015 09:59 AM, edited at 03:11 pm

undefined

guest
You may want to rate the tab now too:
select rating
Wanna post a correction for this tab? Suggest correction