Oops, an error
Loading. Please wait.

Sunrise Acoustic chords

version 5
version 5

Whole song

Interactive

10,393 views 165 this week
no commentswrite comment
1 2 3 4 5
x 11
add to favorites
×
Save as Personal and add changes to this tab that will be seen only by you. Learn more ›
×
You can save this tab as Personal to edit and correct it or add notes. All changes will be seen only by you. Learn more »
launch autoscroll
font size
0
reset
transpose
0
reset
simplify chords
display chords
guitar tuner
edit
Autoscroll
slow
fast
+/-
esc
set tempo
stop
Strumming
There is no strumming pattern for this song yet. and get +5 IQ
Song: "Sunrise (Acoustic)" by Our Last Night
Album: Oak Island Acoustic (2014)

Capo: 2nd Fret
Tuning: Standard

Chords:
C#m  - x46600
C#m7 - x42400
A    - x02200
E    - 022100
B    - x24400

This was made directly by watching the music video, so reference that for timing, strum patterns, etc. 
Tabbed by lafawafa, hope you all enjoy!
------------------

[Intro]

e|-------------------------------------|
B|--2--2-------------------------------|
G|-------4-1---1-1---1-4-1---4---------|
D|-----------4-----4-------2---2--4-1--|
A|-------------------------------------|
E|-------------------------------------|


[Verse 1]

(Use the strumming pattern/fingering below for the next three lines. 
It shows where the notes go at each point on the first line.)

    C#m             A     E             B
e|---------------------------------------------|
B|---------------------------------------------|
G|-----------------2-----1-------------4-------|
D|--6----------------2-----2-------------4-----|
A|----4----------------------------------------|
E|---------------------------------------------|

         Full of despair,    inside a darkness
C#m                 A                  E         B
    Self conscious and scared, held prisoner of war
C#m                 A     E            B
    Running out of air, buried in a sadness
C#m             A              E        B
    Want a way out of this paralyzing world


[Pre-Chorus]
(The strum pattern changes to using a basic hybrid picking technique; Matt uses both his pick and fingers.)

      A         E        C#m7       B
e|------0---------0---------0---------0----|
B|--0-----0---0-----0---0-----0---0-----0--|
G|--2---------1---------4---------4--------|
D|----2---------2---------2---------4------|
A|--0---------2---------4---------2--------|
E|-----------------------------------------|

          A            E           C#m7               B
And the sound of the cries when a family's loved one dies
     A                E                  C#m7               B     A
It echoes through a vacant room where a young soul still resides

(The transitioning A's strum pattern is a bit different.)

e|-------------------|
B|--0----------------|
G|--2---2---2---2----|
D|----2---2---2---2--|
A|--0----------------|
E|-------------------|


[Chorus]
(Strum each chord of the first two lines once.)

          C#m      A            E                 B
When the night is cold and you feel like no-one knows
           C#m            A         E             B
What it's like to be the only one buried in this hole

(Strum these next lines using the hybrid picking from the pre-chorus with the chords below.)

                         C#m
You can make it to the sunrise.
 A      E     B
Woah. Woah. Woah.
                         A
You can make it to the sunrise.
 E    C#m     B
Woah. Woah. Woah.


[Verse 2]
(Normal strumming from this point until the end of the song.)

   C#m          A  E                 B
Searching for a way to escape the madness
  C#m             A            E               B
A dire need for change as we fight for better days
     A            E       C#m7                B
The hurt and the pain cut deep like a razor blade
  A           E               C#m7          B     A
Holding in a cry for love, abandoned and afraid


[Chorus]

          C#m      A            E                 B
When the night is cold and you feel like no-one knows
           C#m            A         E             B
What it's like to be the only one buried in this hole
                         C#m
You can make it to the sunrise.
 A      E     B
Woah. Woah. Woah.
                         A
You can make it to the sunrise.
 E     C#m   B
Woah. Woah. Woah.


[Bridge]

A                                                     C#m   B
  I won't go to my grave until a difference is made
A
  I won't go to my grave until a difference is made
  C#m                           B
(Until a difference is made)


[Chorus]

          C#m      A            E                 B
When the night is cold and you feel like no-one knows
           C#m            A         E             B
What it's like to be the only one buried in this hole
                         C#m
You can make it to the sunrise.
 A      E     B
Woah. Woah. Woah.
                         A
You can make it to the sunrise.
 E     C#m   B
Woah. Woah. Woah.


[Outro]

A                     E    C#m        B
   I won't go to my grave until a difference is made
  A          E        
(Until a difference is made)
C#m             B
    Until a difference is made

A  E  C#m  B (x2, end with an A after the B the second time)


[Outro riff]

e|--11--11-9-----------------9-------9--------------|
B|-----------11-9-11-11-9-11---11---------9---------|
G|--------------------------------11---11---10--11--|
D|--------------------------------------------------|
A|--------------------------------------------------|
E|--------------------------------------------------|

            
            
Suggest correction
Creating personal tab
Creating personal tab
You can edit any tab online and save it as your Personal.

You can edit, replace or remove any tab part or add personal notes – all changes will be seen only by you.

Personal tabs can be accessed anytime from any device, even offline.
Learn more »
comments
print report bad tab
guest
You may want to rate the tab now too:
select rating
Wanna post a correction for this tab? Suggest correction