Oops, an error
Loading. Please wait.

Dizzy tab

version 2
version 2

Whole song

by Ours
103 views 1 this week
no commentswrite comment
1 2 3 4 5
3 more votes to show rating
add to favorites
×
Save as Personal and add changes to this tab that will be seen only by you. Learn more ›
×
You can save this tab as Personal to edit and correct it or add notes. All changes will be seen only by you. Learn more »
launch autoscroll
font size
0
reset
how to read this tab
guitar tuner
edit
Autoscroll
slow
fast
+/-
esc
set tempo
stop
//Artist: Ours
//Song: Dizzy
//Album: Distorted Lullabies

Capo on 2nd fret

INTRO

Guitar1: Am,F,C,G
Guitar2:
e|----------------------------------------|
B|------1----------------1-------0--------|
G|--------2-----2----------0-------0------|(x2) Second time without the last three notes.
D|----2-----------3---2--------0----------|
A|--0---------3-----3---------------------|
E|----------1----------------3------------|

Verse1

We ran, we starved the things that feel
Outback, the drunken waters steal from me

Guitar1
e|-----------------------------------------|
B|--0---0---0---0-----1---1---1---1--------|
G|--0---0---0---0-----0---0---0---0--------|(x4)
D|-----------------------------------------|
A|-----------------------------------------|
E|----3---3---3----3----3---3---3---3------|

Guitar2
e|--7---7---7---7----8---8---8---8----------|
B|--8-8-8-8-8-8-8-8--8-8-8-8-8-8-8----------|
G|--0---0---0---0----5---0-------0----------|(x4)
D|---------------------------0--------------|
A|------------------------------------------|
E|------------------------------------------|

CHORUS

If we beat him down, will he stay?
He's a little dizzy, yeah I feel it starting to take me
Where did everybody go? I need them now to save me

Guitar1: Am,F,C,G (x4)
Guitar2:
e|----------------------------------------|
B|------1----------------1-------0--------|
G|--------2-----2----------0-------0------|(x4) Second time without the last three notes.
D|----2-----------3---2--------0----------|
A|--0---------3-----3---------------------|
E|----------1----------------3------------|

Verse2

Guitar1:G,C (x6)
We fell, when they choked the things that feed
Guitar2:
e|-----2--3-7--2-|
B|--3------------|
G|---------------|
D|---------------|
A|---------------|
E|---------------|

How come we hurt the ones we need? (Only guitar1)

Lie down and stretch upon the sea
Guitar2
e|------------------------------------------|
B|------------------------------------------|
G|----4-5-----------------------------------|
D|--------7--11-4-0-------------------------|
A|-------------------5/7\5-5-2-3-2-0--------|
E|-----------------------------------3------|

CHORUS

If we beat him down, will he stay?
He's a little dizzy, yeah I feel it starting to take me
Where did everybody go? I need them now to save me

Guitar1: Am,F,C,G (x4)
Guitar2:
e|----------------------------------------|
B|------1----------------1-------0--------|
G|--------2-----2----------0-------0------|(x4) Last time without the last three notes.
D|----2-----------3---2--------0----------|
A|--0---------3-----3---------------------|
E|----------1----------------3------------|

SOLO1:
Guitar1:Am,F,C,G
Guitar2:
e|-------------------------------|
B|-------------------------------|
G|-------------------------------|(x4)
D|-------------------------------|
A|--0--0-2-3/5-3-5/7-7-5/2-------|
E|-------------------------------|
Guitar3:
e|----------------------------------------------|
B|----------------------------------------------|
G|-----9-----10------12------10-----------------|(x4)
D|--7---7-9----9-10-----10-9----9---------------|
A|----------------------------------------------|
E|----------------------------------------------|

CHORUS

If we beat him down, will he stay?
He's a little dizzy, yeah I feel it starting to take me
Where did everybody go? I need them now to save me

Guitar1: Am,F,C,G (x4)
Guitar2:
e|----------------------------------------|
B|------1----------------1-------0--------|
G|--------2-----2----------0-------0------|(x4) Second time without the last three notes.
D|----2-----------3---2--------0----------|
A|--0---------3-----3---------------------|
E|----------1----------------3------------|

Guitar3:
e|----------------------------------------------|
B|----------------------------------------------|
G|-----9-----10------12------10-----------------|(x4)
D|--7---7-9----9-10-----10-9----9---------------|
A|----------------------------------------------|
E|----------------------------------------------|


SOLO2:
Guitar1: Am,F,C,G
Guitar2:
e|----------------------------------------|
B|------1----------------1-------0--------|
G|--------2-----2----------0-------0------|(x4) Fourth time without the last three notes.
D|----2-----------3---2--------0----------|
A|--0---------3-----3---------------------|
E|----------1----------------3------------|
Guitar3:
e|----------------------|     |------------------------------|
B|----------------------|     |--|===A===|---|=====B====|----|
G|--7P9-7P9-7P9-7P9-9-7-|(x3) |--|---11--|---|--9br10-7-|----| First time ending in A,second in B
D|----------------------|     |--------------|----------|----|
A|----------------------|     |------------------------------|
E|----------------------|     |------------------------------|

e|-------------------|==A==|----7--------8------------|
B|---------------------10------------------6----------| First time ending in A,second time in B and third in C
G|--7p9-7p9-7p9-7p9------9-------9--------------------|(x2)
D|----------------------------|==B==|--|==C==|--------|
A|----------------------------------------------------|
E|----------------------------------------------------|
Suggest correction
Creating personal tab
Creating personal tab
You can edit any tab online and save it as your Personal.

You can edit, replace or remove any tab part or add personal notes – all changes will be seen only by you.

Personal tabs can be accessed anytime from any device, even offline.
Learn more »
Give kudos to tab author, rate the tab!
1 2 3 4 5
comments
print report bad tab
guest
You may want to rate the tab now too:
select rating
Wanna post a correction for this tab? Suggest correction