Oops, an error
Loading. Please wait.

Fallen Souls Tab

by Ours
1,625 views 1 this week
1 commentread comment
1 2 3 4 5
1 last vote to show rating
add to favorites
launch autoscroll
font size
0
reset
how to read this tab
guitar tuner
×
Best way to learn
"Fallen Souls"
Autoscroll
slow
fast
+/-
esc
set tempo
stop
Ours - Fallen Souls
Written By Jimmy Gnecco
Tabbed By Corbin Hicks (stratocaster_1998@yahoo.com)

This is completely my interpretations...I'm sure a lot is missing/wrong, but,
I think it's a great start.

Please, PLEASE note that I never emphasize timing on my tabs, it is a must that you listen
to the tune to figure out where the notes go.  It's too much of a hassle to make tabs, and
Even much worse to spend time on timing, and it's not too hard to pick it up yourself, so
Ciao!

-Corbin


Opening Riff:  (Strum Bm on an Acoustic over this)
-----------------------------|
E|---------------------------|
B|---------------------------|
G|---------------------------|
D|---------------------------|
A|--2------------/7-----6~---|
E|------3--2-----------------|


Pre-Chorus Thingy:  (Strum Fm, G#, and Bbm on an Acoustic over this )
---------------------------------------------------------|
E|-------------------------------------------------------|
B|--13br-13--13br-11--------13brb-13-11-13--13br-13------|
G|-------------------13----------------------------------|
D|-------------------------------------------------------|
A|-------------------------------------------------------|
E|-------------------------------------------------------|


Chorus:
------
Just play around with these three chords
C#m, Gm, Fm


Post Chorus Power Chord Thingy:
------------------------------
B    C


2nd Verse: (Strum Bm on an Acoustic over this)
----------------------------|
E|--------------------------|
B|--------------------------|
G|--------------------------|
D|--------------------------|
A|--------------------------|
E|--5h7-7-5h7-7-5h7---------|
Do a lot of palm muting and a lot of hammer-ons here..

This fills come in before the second Chorus:
-------------------------------------------
Fill 1
E|------------------------------|
B|--17--16----9--9/12--12/14----|
G|------------------------------|
D|------------------------------|
A|------------------------------|
E|------------------------------|

Fill 2
E|--------------------------------------|
B|--10h12--10h12--10h12--10h12---12br---|
G|--------------------------------------|
D|--------------------------------------|
A|--------------------------------------|
E|--------------------------------------|

Bridge: (Strum these chords: C#m, G#m, Eb, B over this)
------

E|----------------------------------------------------------|
B|--17-----17-----16-----16-----14----14---16---16br~-------|
G|----18-----18-----16-----16-----15----15---16-------------|
D|----------------------------------------------------------|
A|----------------------------------------------------------|
E|----------------------------------------------------------|

E|----------------------------------------------------------|
B|--17-----17-----16-----16-----14----14--------------------|
G|----18-----18-----16-----16-----15----15--16--------------|
D|----------------------------------------------------------|
A|----------------------------------------------------------|
E|----------------------------------------------------------|

Ending Chords:

C#m, Bm, E, A
Suggest correction
Give kudos to tab author, rate the tab!
1 2 3 4 5
comments
print report bad tab
1 comment total.
0 reply
reverendprof 30 Jul 16, 2005 08:00 PM

Good tab, with a few corrections:

(1) The first chord in the chorus is Cm, not C#m.
(2) The second chord in the ending is B7, not Bm.

If you want to play the song with only one guitar, you can use these arrangements for the verse and post-chorus parts:

Verse:

e|-------------------------------------------------|
B|-3---3-3-3-3-3--3-3-3-3--------------------------|
G|-4---4-4-4-4-4--4-4-4-4-4--4-4-4-4-4--4-4-4-4----|
D|-4---4-4-4-4-4--4-4-4-4-4--4-4-4-4-4--4-4-4-4----|
A|-0h2-2-2-2-2-2--2-2-2-2-x--x-x-x-x-x--x-x-x-x----|
E|------------------------3--3-3-3-3-2--2-2-2-2----|

e|-----------------------------------------------|
B|-----------------------------------------------|
G|-----------------------------------------------|
D|-4/9-9-9-9-9-9--9-9-9-9-9--9-9-9-9--9-9-9-9----|
A|-2/7-7-7-7-7-7--7-7-7-7-6--6-6-6-6--6-6-6-6----|
E|-0---0-0-0-0-0--0-0-0-0-0--0-0-0-0--0-0-0-0----|

Post-chorus:
e|--------------------------------------|
B|-3---3-3-3-3--3-3-3-3--3---3-3-3-3----|
G|-4---4-4-4-4--4-4-4-4--4---4-4-4-4----|
D|-4---4-4-4-4--4-4-4-4--4---4-4-4-4----|
A|-0h2-2-2-2-2--2-2-2-2--2/3-3-3-3-3----|
E|--------------------------------------|

guest
You may want to rate the tab now too:
select rating
Wanna post a correction for this tab? Suggest correction