Oops, an error
Loading. Please wait.

Mighty O bass

by OutKast
616 views 1 this week
1 commentread comment
1 2 3 4 5
3 more votes to show rating
add to favorites
×
Save as Personal and add changes to this tab that will be seen only by you. Learn more ›
×
You can save this tab as Personal to edit and correct it or add notes. All changes will be seen only by you. Learn more »
launch autoscroll
font size
0
reset
guitar tuner
edit
Autoscroll
slow
fast
+/-
esc
set tempo
stop
Author
Difficulty
Track – Mighty O
Artist – Outkast
Album - Idlewild


Played through the whole song

G-----------------------------|
D---0---0---------------------|  x3
A-----0---0-----8---8---------|
E----------------8---8--------|


G---------------------------|
D---8---8----------8--7-----|
A-----8---8-----7--------7--|
E---------------------------|

Any comments, just hit me up at jaz_williamson@yahoo.com

            
            
Suggest correction
Creating personal tab
Creating personal tab
You can edit any tab online and save it as your Personal.

You can edit, replace or remove any tab part or add personal notes – all changes will be seen only by you.

Personal tabs can be accessed anytime from any device, even offline.
Learn more »
Give kudos to tab author, rate the tab!
1 2 3 4 5
comments
print report bad tab
1 comment total.
0 reply
substanced1 10 Aug 01, 2013 03:04 PM

I prefer playing

G-----------------------------|
D-----------------------------| x3
A---5---5-------8---8---------|
E-----5---5------8---8--------|

Because it's easier to mute the strings,and I think it sounds better, but that's personal preference.

guest
You may want to rate the tab now too:
select rating
Wanna post a correction for this tab? Suggest correction