Oops, an error
Loading. Please wait.

Ms Jackson Bass

by OutKast
12,754 views 12 this week
2 commentsread comments
1 2 3 4 5
x 8
add to favorites
launch autoscroll
font size
0
reset
guitar tuner
×
Best way to learn
"Ms Jackson"
Autoscroll
slow
fast
+/-
esc
set tempo
stop
Author
[Verse]
G|--------------------------------------------------|
D|--------------------------------------------------|
A|--------------------------------------------------|
E|-1-1-1-1---1-1-1-1--3----5-5-5-5----5-5-5-5-3-----|
  
[Chorus]
G|---------------------------------------------------|
D|---------------------------------------------------|
A|----------4-----------------7-------------5--------|
E|-1-1-1-1----1---3---5-5-5-5--5----3-3-3-3---3----1-|
Suggest correction
comments
print report bad tab
2 comments total.
+1 reply
ibanezbass22 10 May 16, 2007 03:52 PM

im pretty sure this song has some pops too, not just slaps on the E string.

+2 reply
Child Of Maiden 20 Mar 28, 2008 11:38 AM

I'm pretty sure most of it just goes like this:

G|-------------------------------------------
D|----7---7----5----5-------3---3---3----5---
A|-------------------------------------------
E|--5---55----3---33------1---11--1----33----
s p ssp sp ssp s p ssp sp ssp

guest
You may want to rate the tab now too:
select rating
Wanna post a correction for this tab? Suggest correction