Oops, an error
Loading. Please wait.

So Fresh So Clean tab

version 1
version 1

Whole song

by OutKast
22,136 views 36 this week
5 commentsread comments
1 2 3 4 5
x 28
add to favorites
×
Save as Personal and add changes to this tab that will be seen only by you. Learn more ›
×
You can save this tab as Personal to edit and correct it or add notes. All changes will be seen only by you. Learn more »
launch autoscroll
font size
0
reset
how to read this tab
guitar tuner
edit
Autoscroll
slow
fast
+/-
esc
set tempo
stop
By:Outkast
So fresh so clean
Tabbed by:Doug

I was really bored so I tabbed this song out.

Riff:
e|------------------------------------|
B|------------------------------------|
G|--------------5-3-------------------|
D|---------3-5------5--3--5--6-5-3----|
A|--3-5--6----------------------------|
E|------------------------------------|

e|--------------8-6-------------------|
B|---------6-8------8--6--8--9-8-6----|
G|--5-7--8----------------------------|
D|------------------------------------|
A|------------------------------------|
E|------------------------------------|

Then you just repeat it over and over again and again.

            
            
Suggest correction
Creating personal tab
Creating personal tab
You can edit any tab online and save it as your Personal.

You can edit, replace or remove any tab part or add personal notes – all changes will be seen only by you.

Personal tabs can be accessed anytime from any device, even offline.
Learn more »
comments
print report bad tab
5 comments total. Showing first comments.
0 reply
Koku 10 Nov 02, 2003 07:00 PM

Thanks!

+1 reply
blackguy 380 Feb 08, 2004 07:00 PM

so fresh and so clean clean.

0 reply
Grubdog 10 May 21, 2004 08:00 PM

Thanks, this is great.

guest
You may want to rate the tab now too:
select rating
Wanna post a correction for this tab? Suggest correction