Oops, an error
Loading. Please wait.

Ghost Riders In The Sky Tab

version 1
version 1

Whole song

Interactive

93,513 views 60 this week
6 commentsread comments
1 2 3 4 5
worth learning
x 5
add to favorites
launch autoscroll
font size
0
reset
how to read this tab
guitar tuner
Autoscroll
slow
fast
+/-
esc
set tempo
stop
Help us to improve Ultimate-Guitar.com Take our survey!
×
Author
Band - The Outlaws
Song - Ghost Riders In The Sky

Verse:
|---||------------------|-----------------|-----------------|---------------|
|---||------------------|-----------------|-----------------|---------------|
|---||o-----------------|-----------------|-----------------|---------------|
|---||o-----------------|-----------------|-----------------|---------------|
|---||---0--0---0---2---|--(2)h3-3--3--0--|-----------------|---------------|
|-0-||------------------|-----------------|--3---3--3---0---|----3----------|

|------------------------|--------------|----------------|------------------|
|------------------------|--------------|----------------|------------------|
|------------------------|--------------|----------------|------------------|
|------------------------|--------------|----------------|---------------0--|
|------------------------|--------------|--0---0--0---2--|--(2)h3--3--3-----|
|--12-12-11-11-10-10-9-9-|-8-8-7-7-6\-0-|----------------|------------------|

|------------------|--------------|------------------------|----------------|
|------------------|--------------|------------------------|----------------|
|------------------|--------------|------------------------|----------------|
|-(0)h2--2-2p0-----|---2----------|-14-14-13-13-12-12-11-11|--10-10-9-9-8\-2|
|---------------3--|--------------|------------------------|----------------|
|------------------|--------------|------------------------|----------------|

|------------------|------------------|------------------|------------------|
|------------------|------------------|------------------|------------------|
|-------2--2---2---|---2--------------|------------------|------------------|
|---2--------------|-------2--2---2---|---2---2p0--------|------------------|
|------------------|------------------|--------------3---|---0-----------0--|
|------------------|------------------|------------------|------------------|

|------------------|------------------|------------------|------------------|
|------------------|------------------|------------------|------------------|
|------------------|------------------|------------------|------------------|
|------------------|------------------|------------------|------------------|
|------------------|---3---3---3------|------------------|------------------|
|---1---1--1---1---|------------------|--1-1-2-2-3-3-4-4-|-5-5-6-6-7-7---8--|

|---------------|--------------|--------------|--------------|-------------||
|---------------|--------------|--------------|--------------|-------------||
|---------------|--------------|--------------|--------------|-------------||
|---------------|--------------|--------------|--------------|-------------||
|---------------|-----7--7--7--|--7--7--7--7--|--7--7--7--7--|--7---7---7--||
|--8---5-5--3---|--5--5--5--0--|--5--5--5--0--|--5--5--5--0--|--5---5---5--||

Chorus:
||------------------|------------------|-------------------|----------------|
||------------------|------------------|-------------------|----------------|
||------------------|------------------|-------------------|----------------|
||---5---5---5---5--|--5---5---5---5---|---5---5---5---5---|---5---5---5----|
||---3---3---3---0--|--3---3---3---0---|---3---3---3---0---|---3---3---3----|
||------------------|------------------|-------------------|----------------|

|------------------|-------------------|------------------|-----------------|
|------------------|-------------------|------------------|-----------------|
|------------------|-------------------|------------------|-----------------|
|--2---2--2--------|--2---2--2---------|--2---2--2--------|--2---2--2-------|
|--0---0--0--------|--0---0--0---------|--0---0--0--------|--0---0--0-------|
|-------------3(b)-|------------3(b)---|-------------3(b)-|------------3(b)-|

|------------------|------------------|------------------|------------------|
|------------------|------------------|------------------|------------------|
|------------------|------------------|------------------|------------------|
|------------------|------------------|------------------|------------------|
|---3---3---3------|--3---3---3-------|---3---3---3------|--3---3---3-------|
|---1---1---1---0--|--1---1---1---0---|---1---1---1---0--|--1---1---1---0---|

|-----------------|------------------|------------------|------------------||
|-----------------|------------------|------------------|------------------||
|-----------------|------------------|------------------|-----------------o||
|-----------------|------------------|------------------|-----------------o||
|--7---7---7---7--|--7---7---7---7---|--7---7---7---7---|--7---7---7-------||
|--5---5---5---0--|--5---5---5---0---|--5---5---5---0---|--5---5---5---0---||


Am                                 C 
An old cowpoke went riding out one dark and windy day
  Am
Upon a ridge he rested as he went upon his way
     Am            (F/A)         (D/A)            (F/A)
When all at once a mighty herd of red-eyed cows he saw
F                         (Dm)     Am
coming through the ragged sky, and up a cloudy draw

      Am                                  C 
Their brands were still on fire and their hot breath he could feel
      Am
Their horns were black and shiny and their hooves were made of steel
  Am               (F/A)               (D/A)               (F/A)  
A bolt of fear went through him as they rumbled through the sky
        F                          (Dm)        Am
Then he saw the riders coming hard,     and he heard their mournful cry


CHORUS

         C             Am    (G)
Yippe-ai-ay, yippee-ai-oh
F           (Dm)    Am
Ghost riders in the sky


       Am                         C 
As the riders loped on by him, he heard one call his name
       Am
If you want to save your soul from hell, a riding on this range
     Am                (F/A)         (D/A)            (F/A) 
Then cowboy change your ways today or with us you will ride
F                              (Dm)    Am
Trying to catch the devil's herd,    across these endless skies
Suggest correction
comments
print report bad tab
6 comments total. Showing first comments.
-2 reply
blind_melon1995 10 wrote on June 5 2007, 07:47 pm

DRINK SEMEN AND FUCKING DIE, YOU GOD DAMN WASTE OF LIFE CUNT ASS FUCK UP!!

-1 reply
dlbowles 10 wrote on February 3 2008, 12:17 pm

blind melon1995, better yet blind melon chitlin', no doubt has no verbal skills or any concept or the command of the English language
to be able to communicate on a civil plane. I'm sure this would manifest his shortcomings in every other facet of his endeavors to which his infantile abilities are so limited. To address his comment
dated 06-05-2007, just look in the mirror and repeat that statement,
it should sound beautiful with the correct tone and voice inflection

+1 reply
Gh057 26 wrote on August 3 2008, 04:49 am

Wow he's a tard. I mean, I can't say this is the correct guitar I was personally looking for, but there are 4 guitars, this is absolutely one of them. Be it not Henry, but still one of them nonetheless.

guest
You may want to rate the tab now too:
select rating
Please do not post tabs as comments. Select "correction" instead!