Oops, an error
Loading. Please wait.

Heavenly Blues Tab

version 1
version 1

Whole song

Interactive

85 views 1 this week
no commentswrite comment
1 2 3 4 5
3 more votes to show rating
add to favorites
launch autoscroll
font size
0
reset
how to read this tab
guitar tuner
Autoscroll
slow
fast
+/-
esc
set tempo
stop
Help us to improve Ultimate-Guitar.com Take our survey!
×
Author
Difficulty
intermediate
------------------------------------------------------------------------------
                             Heavenly Blues- The Outlaws
                                 Hurry Sundown-1977
                            Words and Music by Henry Paul
------------------------------------------------------------------------------
Tabbed by: Duane Baldwin
E-mail: duaneandjulie@gmail.com

Tuning: Standard


Guitar I (Hughie Thomasson)

Intro ( Slight Over driven tone)

   .Q     .q      Qtw                       .Q     .q     Qtw
e|----------------------|---------------|--------------------|---------------|
B|—-8------8------13----|---------------|---8------8---------|---------------|
G|–-7pbr---7pbr---12b---|---------------|—--7pbr---7pbr---5--|---------------|
D|----------------------|---------------|--------------------|---------------|
A|----------------------|---------------|--------------------|---------------|
E|----------------------|---------------|--------------------|---------------|


   .Q     .q      Qtw                       .Q     .q     Qtw
e|----------------------|---------------|--------------------|---------------|
B|—-8------8------13----|---------------|---8------8---------|---------------|
G|–-7pbr---7pbr---12b---|---------------|—--7pbr---7pbr---5--|---------------|
D|----------------------|---------------|--------------------|---------------|
A|----------------------|---------------|--------------------|---------------|
E|----------------------|---------------|--------------------|---------------|


    e  E  e  e  E  E  s  s e
e|–-5--3----------------------|
B|--------6--5--3-------------|
G|-----------------5--2p0-----|
D|-------------------------2--|
A|----------------------------|
E|----------------------------|


1st Verse (Clean tone)

    Q  E  q  e  e  E     Q  E  q  e  e  e     Q  e  q  e  e  e
e|--0--1--0--0--0--0--|--1--1--1--1--1--1--|--0--0--0--0--0--0--|
B|--1--1--1--1--1--1--|--1--1--1--1--1--1--|--1--1--1--1--1--1--|
G|--0--0--0--0--0--0--|--2--2--2--2--2--2--|--0--0--0--0--0--0--|
D|--------------------|--------------------|--------------------|
A|--------------------|--------------------|--------------------|
E|--------------------|--------------------|--------------------|


    Q  E  q  e  e  E     Q  E  q  e  e  e     Q  e  q  e  e  e 
e|--1--1--1--1--1--1--|--0--0--0--0--0--0--|--0--0--0--0--0--0--|
B|--1--1--1--1--1--1--|--1--1--1--1--1--1--|--1--1--1--1--1--1--|
G|--2--2--2--2--2--2--|--0--0--0--0--0--0--|--0--0--0--0--0--0--|
D|--------------------|--------------------|--------------------|
A|--------------------|--------------------|--------------------|
E|--------------------|--------------------|--------------------|

    Q  E  q  e  e  E     E  E  e  q  e  e  e     Q  e  q  e  e  e
e|--0--0--0--0--0--0--|--0--0--0--0--0--0--0--|--0--0--0--0--0--0--|
B|--1--1--1--1--1--1--|--1--1--1--1--1--1--1--|--1--1--1--1--1--1--|
G|--2--2--2--2--2--2--|--2--2--2--2--2--2--2--|--0--0--0--0--0--0--|
D|--2--2--2--2--2--2--|--2--2--2--2--2--2--2--|--------------------|
A|--------------------|-----------------------|--------------------|
E|--------------------|-----------------------|--------------------|


    Q  E  q  e  e  E     Q  E  q  e  e  e     Q  e  q  e  e  e
e|--3--3--3--3--3--3--|--1--1--1--1--1--1--|--1--1--1--1--1--1--|
B|--3--3--3--3--3--3--|--1--1--1--1--1--1--|--1--1--1--1--1--1--|
G|--0--0--0--0--0--0--|--2--2--2--2--2--2--|--2--2--2--2--2--2--|
D|--------------------|--------------------|--------------------|
A|--------------------|--------------------|--------------------|
E|--------------------|--------------------|--------------------|


    Q  E  q  e  e  E     Q  E  q  e  e  e    .h     qth   e  e  e  e
e|--0--0--0--0--0--0--|--3--3--3--3--3--3--|--1-----1--|--1--1--1--1--|
B|--1--1--1--1--1--1--|--3--3--3--3--3--3--|--1-----1--|--1--1--1--1--|
G|--0--0--0--0--0--0--|--0--0--0--0--0--0--|--2-----2--|--2--2--2--2--|
D|--------------------|--------------------|--3-----3--|--3--3--3--3--|
A|--------------------|--------------------|-----------|--------------|
E|--------------------|--------------------|-----------|--------------|


1st Chorus

    Q  E  q  E  E  e     Q  E  Q  E  E  E     Q  E  Q  E  E  e
e|--0--0--0--0--0--0--|--1--1--1--1--1--1--|--0--0--0--0--0--0--|
B|--0--0--0--0--0--0--|--1--1--1--1--1--1--|--1--1--1--1--1--1--|
G|--0--0--0--0--0--0--|--2--2--2--2--2--2--|--0--0--0--0--0--0--|
D|--2--2--2--2--2--2--|--3--3--3--3--3--3--|--2--2--2--2--2--2--|
A|--2--2--2--2--2--2--|--3--3--3--3--3--3--|--3--3--3--3--3--3--|
E|--0--0--0--0--0--0--|--1--1--1--1--1--1--|--------------------|


    Q  E  q  E  E  e     Q  E  Q  E  E  E     Q  E  Q  E  E  e
e|--1--1--1--1--1--1--|--0--0--0--0--0--0--|--1--1--1--1--1--1--|
B|--1--1--1--1--1--1--|--0--0--0--0--0--0--|--1--1--1--1--1--1--|
G|--2--2--2--2--2--2--|--0--0--0--0--0--0--|--2--2--2--2--2--2--|
D|--3--3--3--3--3--3--|--2--2--2--2--2--2--|--3--3--3--3--3--3--|
A|--3--3--3--3--3--3--|--2--2--2--2--2--2--|--3--3--3--3--3--3--|
E|--1--1--1--1--1--1--|--0--0--0--0--0--0--|--1--1--1--1--1--1--|
 

    Q  E  q  E  E  e     Q  E  Q  E  E  E     Q  E  Q  E  E  E   
e|--3--3--3--3--3--3--|--3--3--3--3--3--3--|--1--1--1--1--1--1--|
B|--0--0--0--0--0--0--|--0--0--0--0--0--0--|--3--3--3--3--3--3--|
G|--0--0--0—-0—-0--0--|--0--0--0--0--0--0--|--2--2--2--2--2--2--|
D|--0--0--0--0--0--0--|--0--0--0--0--0--0--|--0--0--0--0--0--0--|
A|--2--2--2--2--2--2--|--2--2--2--2--2--2--|--------------------|
E|--3--3--3--3--3--3--|--3--3--3--3--3--3--|--------------------|

    Q  E  q  E  E  e     Q  E  Q  E  E  E     Q  E  Q  E  E  E   
e|--3--3--3--3--3--3--|--0--0--0--0--0--0--|--0--0--0--0--0--0--|
B|--0--0--0--0--0--0--|--1--1--1--1--1--1--|--1--1--1--1--1--1--|
G|--0--0--0—-0—-0--0--|--0--0--0--0--0--0--|--2--2--2--2--2--2--|
D|--0--0--0--0--0--0--|--2--2--2--2--2--2--|--2--2--2--2--2--2--|
A|--2--2--2--2--2--2--|--3--3--3--3--3--3--|--0--0--0--0--0--0--|
E|--3--3--3--3--3--3--|--------------------|--------------------|


    Q  E  q  E  E  e     Q  E  Q  E  E  E           
e|--1--1--1--1--1--1--|--3--3--3--3--3--3--|
B|--1--1--1--1--1--1--|--0--0--0--0--0--0--|
G|--2--2--2--2--2--2--|--0--0--0--0--0--0--|
D|--3--3--3--3--3--3--|--0--0--0--0--0--0--|
A|--3--3--3--3--3--3--|--2--2--2--2--2--2--|
E|--1--1--1--1--1--1--|--3--3--3--3--3--3--|
 

Intro Reprise ( Slight Over Driven Tone)

   .Q     .q      Qt.q       s s  h       .Q     .q      Q
e|---------------------|---------------|--------------------|
B|—-8------8------13---|-----6p5-------|---8------8---------|
G|–-7pbr---7pbr---12b--|----------7----|—--7pbr---7pbr---5--|
D|---------------------|---------------|--------------------|
A|---------------------|---------------|--------------------|
E|---------------------|---------------|--------------------|


    e  E  e  e  E  E  s  s e
e|–-5--3----------------------|
B|--------6--5--3-------------|
G|-----------------5--2p0-----|
D|-------------------------2--|
A|----------------------------|
E|----------------------------|


2nd Verse (Clean tone)

    Q  E  q  e  e  E     Q  E  q  e  e  e     Q  e  q  e  e  e
e|--0--1--0--0--0--0--|--1--1--1--1--1--1--|--0--0--0--0--0--0--|
B|--1--1--1--1--1--1--|--1--1--1--1--1--1--|--1--1--1--1--1--1--|
G|--0--0--0--0--0--0--|--2--2--2--2--2--2--|--0--0--0--0--0--0--|
D|--------------------|--------------------|--------------------|
A|--------------------|--------------------|--------------------|
E|--------------------|--------------------|--------------------|


    Q  E  q  e  e  E     Q  E  q  e  e  e     Q  e  q  e  e  e 
e|--1--1--1--1--1--1--|--0--0--0--0--0--0--|--0--0--0--0--0--0--|
B|--1--1--1--1--1--1--|--1--1--1--1--1--1--|--1--1--1--1--1--1--|
G|--2--2--2--2--2--2--|--0--0--0--0--0--0--|--0--0--0--0--0--0--|
D|--------------------|--------------------|--------------------|
A|--------------------|--------------------|--------------------|
E|--------------------|--------------------|--------------------|

  
    Q  E  q  e  e  E     E  E  e  q  e  e  e     Q  e  q  e  e  e
e|--0--0--0--0--0--0--|--0--0--0--0--0--0--0--|--0--0--0--0--0--0--|
B|--1--1--1--1--1--1--|--1--1--1--1--1--1--1--|--1--1--1--1--1--1--|
G|--2--2--2--2--2--2--|--2--2--2--2--2--2--2--|--0--0--0--0--0--0--|
D|--2--2--2--2--2--2--|--2--2--2--2--2--2--2--|--------------------|
A|--------------------|-----------------------|--------------------|
E|--------------------|-----------------------|--------------------|


    Q  E  q  e  e  E     Q  E  q  e  e  e     Q  e  q  e  e  e
e|--3--3--3--3--3--3--|--1--1--1--1--1--1--|--1--1--1--1--1--1--|
B|--3--3--3--3--3--3--|--1--1--1--1--1--1--|--1--1--1--1--1--1--|
G|--0--0--0--0--0--0--|--2--2--2--2--2--2--|--2--2--2--2--2--2--|
D|--------------------|--------------------|--------------------|
A|--------------------|--------------------|--------------------|
E|--------------------|--------------------|--------------------|

    Q  E  q  e  e  E     Q  E  q  e  e  e    .h     qth   e  e  e  e
e|--0--0--0--0--0--0--|--3--3--3--3--3--3--|--1-----1--|--1--1--1--1--|
B|--1--1--1--1--1--1--|--3--3--3--3--3--3--|--1-----1--|--1--1--1--1--|
G|--0--0--0--0--0--0--|--0--0--0--0--0--0--|--2-----2--|--2--2--2--2--|
D|--------------------|--------------------|--3-----3--|--3--3--3--3--|
A|--------------------|--------------------|-----------|--------------|
E|--------------------|--------------------|-----------|--------------|


2nd  Chorus

    Q  E  q  E  E  e     Q  E  Q  E  E  E     Q  E  Q  E  E  e
e|--0--0--0--0--0--0--|--1--1--1--1--1--1--|--0--0--0--0--0--0--|
B|--0--0--0--0--0--0--|--1--1--1--1--1--1--|--1--1--1--1--1--1--|
G|--0--0--0--0--0--0--|--2--2--2--2--2--2--|--0--0--0--0--0--0--|
D|--2--2--2--2--2--2--|--3--3--3--3--3--3--|--2--2--2--2--2--2--|
A|--2--2--2--2--2--2--|--3--3--3--3--3--3--|--3--3--3--3--3--3--|
E|--0--0--0--0--0--0--|--1--1--1--1--1--1--|--------------------|


    Q  E  q  E  E  e     Q  E  Q  E  E  E     Q  E  Q  E  E  E
e|--1--1--1--1--1--1--|--0--0--0--0--0--0--|--1--1--1--1--1--1--|
B|--1--1--1--1--1--1--|--0--0--0--0--0--0--|--1--1--1--1--1--1--|
G|--2--2--2--2--2--2--|--0--0--0--0--0--0--|--2--2--2--2--2--2--|
D|--3--3--3--3--3--3--|--2--2--2--2--2--2--|--3--3--3--3--3--3--|
A|--3--3--3--3--3--3--|--2--2--2--2--2--2--|--3--3--3--3--3--3--|
E|--1--1--1--1--1--1--|--0--0--0--0--0--0--|--1--1--1--1--1--1--|
 

    Q  E  q  E  E  e     Q  E  Q  E  E  E     Q  E  Q  E  E  E   
e|--3--3--3--3--3--3--|--3--3--3--3--3--3--|--1--1--1--1--1--1--|
B|--0--0--0--0--0--0--|--0--0--0--0--0--0--|--3--3--3--3--3--3--|
G|--0--0--0—-0—-0--0--|--0--0--0--0--0--0--|--2--2--2--2--2--2--|
D|--0--0--0--0--0--0--|--0--0--0--0--0--0--|--0--0--0--0--0--0--|
A|--2--2--2--2--2--2--|--2--2--2--2--2--2--|--------------------|
E|--3--3--3--3--3--3--|--3--3--3--3--3--3--|--------------------|


    Q  E  q  E  E  e     Q  E  Q  E  E  E     Q  E  Q  E  E  E   
e|--3--3--3--3--3--3--|--0--0--0--0--0--0--|--0--0--0--0--0--0--|
B|--0--0--0--0--0--0--|--1--1--1--1--1--1--|--1--1--1--1--1--1--|
G|--0--0--0—-0—-0--0--|--0--0--0--0--0--0--|--2--2--2--2--2--2--|
D|--0--0--0--0--0--0--|--2--2--2--2--2--2--|--2--2--2--2--2--2--|
A|--2--2--2--2--2--2--|--3--3--3--3--3--3--|--0--0--0--0--0--0--|
E|--3--3--3--3--3--3--|--------------------|--------------------|


    Q  E  q  E  E  e     Q  E  Q  E  E  E           
e|--1--1--1--1--1--1--|--3--3--3--3--3--3--|
B|--1--1--1--1--1--1--|--0--0--0--0--0--0--|
G|--2--2--2--2--2--2--|--0--0--0--0--0--0--|
D|--3--3--3--3--3--3--|--0--0--0--0--0--0--|
A|--3--3--3--3--3--3--|--2--2--2--2--2--2--|
E|--1--1--1--1--1--1--|--3--3--3--3--3--3--|
 

2nd Intro Reprise ( Slight Over Driven Tone)

   .Q     .q      Qt.q       s s  h       .Q     .q      Qtw
e|---------------------|---------------|--------------------|---------------|
B|—-8------8------13---|-----6p5-------|---8------8---------|---------------|
G|–-7pbr---7pbr---12b--|----------7----|—--7pbr---7pbr---5--|---------------|
D|---------------------|---------------|--------------------|---------------|
A|---------------------|---------------|--------------------|---------------|
E|---------------------|---------------|--------------------|---------------|



Main Solo (Clean Tone)

    E     .h     Q   e   hte   q    .h     Q    e   hte      W 
e|--0------0--|--1---1------|--0-----0--|--1----1---1--|-----0----------|
B|--0------0--|--1-------1--|--1-----1--|--1----1---1--|-----0----------|
G|--0------0--|--2----------|--0-----0--|--2----2---2--|-----0----------|
D|--2---------|--3----------|--2--------|--3-----------|-----2----------|
A|--2---------|--3----------|--3--------|--3-----------|-----2----------|
E|--0---------|--1----------|-----------|--1-----------|-----0----------|

* (Switch to over driven tone)
 
   Q   e  hte   qr  Q    q    Qtq      E   q    .q       h   .e .e   e
e|--1---1------|-----7+---5+---------|----------------|-----------------|
B|--1-------1--|---------------5+----|--5+------------|--------------5--|
G|--2----------|---------------------|------5+---7b*--|--7---5---7------|
D|--3----------|---------------------|----------------|-----------------|
A|--3----------|---------------------|----------------|-----------------|
E|--1----------|---------------------|----------------|-----------------|

    .e .e  e  .q  e       W
e|-------------------|---------|
B|--6--5-------------|---------|
G|--------7--7pbr–5--|---------|
D|-------------------|----7----|
A|-------------------|---------|
E|-------------------|---------|


Bridge (Clean Tone)


    Q  E  q  E  E  e     Q  E  Q  E  E  E           
e|--1--1--1--1--1--1--|--3--3--3--3--3--3--|
B|--1--1--1--1--1--1--|--0--0--0--0--0--0--|
G|--2--2--2--2--2--2--|--0--0--0--0--0--0--|
D|--3--3--3--3--3--3--|--0--0--0--0--0--0--|
A|--3--3--3--3--3--3--|--2--2--2--2--2--2--|
E|--1--1--1--1--1--1--|--3--3--3--3--3--3--|
 


Intro Reprise (Over Driven Tone)

   .Q     .q      Qtw                       .Q     .q     Qtw
e|----------------------|---------------|--------------------|---------------|
B|—-8------8------13----|---------------|---8------8---------|---------------|
G|–-7pbr---7pbr---12b---|---------------|—--7pbr---7pbr---5--|---------------|
D|----------------------|---------------|--------------------|---------------|
A|----------------------|---------------|--------------------|---------------|
E|----------------------|---------------|--------------------|---------------|


3rd Verse (Clean tone)

    Q  E  q  e  e  E     Q  E  q  e  e  e     Q  e  q  e  e  e
e|--0--1--0--0--0--0--|--1--1--1--1--1--1--|--0--0--0--0--0--0--|
B|--1--1--1--1--1--1--|--1--1--1--1--1--1--|--1--1--1--1--1--1--|
G|--0--0--0--0--0--0--|--2--2--2--2--2--2--|--0--0--0--0--0--0--|
D|--------------------|--------------------|--------------------|
A|--------------------|--------------------|--------------------|
E|--------------------|--------------------|--------------------|


    Q  E  q  e  e  E     Q  E  q  e  e  e     Q  e  q  e  e  e 
e|--1--1--1--1--1--1--|--0--0--0--0--0--0--|--0--0--0--0--0--0--|
B|--1--1--1--1--1--1--|--1--1--1--1--1--1--|--1--1--1--1--1--1--|
G|--2--2--2--2--2--2--|--0--0--0--0--0--0--|--0--0--0--0--0--0--|
D|--------------------|--------------------|--------------------|
A|--------------------|--------------------|--------------------|
E|--------------------|--------------------|--------------------|

  

    Q  E  q  e  e  E     E  E  e  q  e  e  e     Q  e  q  e  e  e
e|--0--0--0--0--0--0--|--0--0--0--0--0--0--0--|--0--0--0--0--0--0--|
B|--1--1--1--1--1--1--|--1--1--1--1--1--1--1--|--1--1--1--1--1--1--|
G|--2--2--2--2--2--2--|--2--2--2--2--2--2--2--|--0--0--0--0--0--0--|
D|--2--2--2--2--2--2--|--2--2--2--2--2--2--2--|--------------------|
A|--------------------|-----------------------|--------------------|
E|--------------------|-----------------------|--------------------|


    Q  E  q  e  e  E     Q  E  q  e  e  e     Q  e  q  e  e  e
e|--3--3--3--3--3--3--|--1--1--1--1--1--1--|--1--1--1--1--1--1--|
B|--3--3--3--3--3--3--|--1--1--1--1--1--1--|--1--1--1--1--1--1--|
G|--0--0--0--0--0--0--|--2--2--2--2--2--2--|--2--2--2--2--2--2--|
D|--------------------|--------------------|--------------------|
A|--------------------|--------------------|--------------------|
E|--------------------|--------------------|--------------------|

    Q  E  q  e  e  E     Q  E  q  e  e  e    .h     qth   e  e  e  e
e|--0--0--0--0--0--0--|--3--3--3--3--3--3--|--1-----1--|--1--1--1--1--|
B|--1--1--1--1--1--1--|--3--3--3--3--3--3--|--1-----1--|--1--1--1--1--|
G|--0--0--0--0--0--0--|--0--0--0--0--0--0--|--2-----2--|--2--2--2--2--|
D|--------------------|--------------------|--3-----3--|--3--3--3--3--|
A|--------------------|--------------------|-----------|--------------|
E|--------------------|--------------------|-----------|--------------|


3rd  Chorus

    Q  E  q  E  E  e     Q  E  Q  E  E  E     Q  E  Q  E  E  E  
e|--0--0--0--0--0--0--|--1--1--1--1--1--1--|--0--0--0--0--0--0--|
B|--0--0--0--0--0--0--|--1--1--1--1--1--1--|--1--1--1--1--1--1--|
G|--0--0--0--0--0--0--|--2--2--2--2--2--2--|--0--0--0--0--0--0--|
D|--2--2--2--2--2--2--|--3--3--3--3--3--3--|--2--2--2--2--2--2--|
A|--2--2--2--2--2--2--|--3--3--3--3--3--3--|--3--3--3--3--3--3--|
E|--0--0--0--0--0--0--|--1--1--1--1--1--1--|--------------------|


    Q  E  q  E  E  e     Q  E  Q  E  E  E     Q  E  Q  E  E  E
e|--1--1--1--1--1--1--|--0--0--0--0--0--0--|--1--1--1--1--1--1--|
B|--1--1--1--1--1--1--|--0--0--0--0--0--0--|--1--1--1--1--1--1--|
G|--2--2--2--2--2--2--|--0--0--0--0--0--0--|--2--2--2--2--2--2--|
D|--3--3--3--3--3--3--|--2--2--2--2--2--2--|--3--3--3--3--3--3--|
A|--3--3--3--3--3--3--|--2--2--2--2--2--2--|--3--3--3--3--3--3--|
E|--1--1--1--1--1--1--|--0--0--0--0--0--0--|--1--1--1--1--1--1--|
 

    Q  E  q  E  E  e     Q  E  Q  E  E  E     Q  E  Q  E  E  E   
e|--3--3--3--3--3--3--|--3--3--3--3--3--3--|--1--1--1--1--1--1--|
B|--0--0--0--0--0--0--|--0--0--0--0--0--0--|--3--3--3--3--3--3--|
G|--0--0--0—-0—-0--0--|--0--0--0--0--0--0--|--2--2--2--2--2--2--|
D|--0--0--0--0--0--0--|--0--0--0--0--0--0--|--0--0--0--0--0--0--|
A|--2--2--2--2--2--2--|--2--2--2--2--2--2--|--------------------|
E|--3--3--3--3--3--3--|--3--3--3--3--3--3--|--------------------|

 
    Q  E  q  E  E  e     Q  E  Q  E  E  E     Q  E  Q  E  E  E   
e|--3--3--3--3--3--3--|--0--0--0--0--0--0--|--0--0--0--0--0--0--|
B|--0--0--0--0--0--0--|--1--1--1--1--1--1--|--1--1--1--1--1--1--|
G|--0--0--0—-0—-0--0--|--0--0--0--0--0--0--|--2--2--2--2--2--2--|
D|--0--0--0--0--0--0--|--2--2--2--2--2--2--|--2--2--2--2--2--2--|
A|--2--2--2--2--2--2--|--3--3--3--3--3--3--|--0--0--0--0--0--0--|
E|--3--3--3--3--3--3--|--------------------|--------------------|


    Q  E  q  E  E  e     Q  E  Q  E  E  E           
e|--1--1--1--1--1--1--|--3--3--3--3--3--3--|
B|--1--1--1--1--1--1--|--0--0--0--0--0--0--|
G|--2--2--2--2--2--2--|--0--0--0--0--0--0--|
D|--3--3--3--3--3--3--|--0--0--0--0--0--0--|
A|--3--3--3--3--3--3--|--2--2--2--2--2--2--|
E|--1--1--1--1--1--1--|--3--3--3--3--3--3--|
 

Intro Reprise (Over Driven Tone)

   .Q     .q      Qth                       
e|----------------------|--5--3--------|
B|—-8------8------13----|--------6--5--|
G|–-7pbr---7pbr---12b---|--------------|
D|----------------------|--------------|
A|----------------------|--------------|
E|----------------------|--------------|


Outro (Clean Tone)


    Q  E  q  E  E  e     Q  E  Q  E  E  E     Q  E  Q  E  E  E 
e|-----1--1--1--1--1--|--3--3--3--3--3--3--|--1--1--1--1--1--1--|
B|–-6--1--1--1--1--1--|--0--0--0--0--0--0--|--1--1--1--1--1--1--|
G|-----2--2--2--2--2--|--0--0--0--0--0--0--|--2--2--2--2--2--2--|
D|-----3--3--3--3--3--|--0--0--0--0--0--0--|--3--3--3--3--3--3--|
A|-----3--3--3--3--3--|--2--2--2--2--2--2--|--3--3--3--3--3--3--|
E|-----1--1--1--1--1--|--3--3--3--3--3--3--|--1--1--1--1--1--1--|
 

    Q  E  q  E  E  e     Q  E  Q  E  E  E     q  E  Q  E  E  E 
e|--3--3--3--3--3--3--|--1--1--1--1--1--1--|--3--3--3--3--3--3--|
B|--0--0--0--0--0--0--|--1--1--1--1--1--1--|--0--0--0--0--0--0--|
G|--0--0--0--0--0--0--|--2--2--2--2--2--2--|--0--0--0--0--0--0--|
D|--0--0--0--0--0--0--|--3--3--3--3--3--3--|--0--0--0--0--0--0--|
A|--2--2--2--2--2--2--|--3--3--3--3--3--3--|--2--2--2--2--2--2--|
E|--3--3--3--3--3--3--|--1--1--1--1--1--1--|--3--3--3--3--3--3--|
 

 
(Over driven)

  .Q     .q      Qth       E  e  e  e     .Q     .q      Q               
e|----------------------|--5--3--------|--------------------|
B|—-8------8------13----|--------6--5--|---8------8---------|
G|–-7pbr---7pbr---12b---|--------------|—--7pbr---7pbr---5--|
D|----------------------|--------------|--------------------|
A|----------------------|--------------|--------------------|
E|----------------------|--------------|--------------------|



    e  E  e  e  E  E  s  s e     .q     .q     Qt.h     Er    S   s     W  
e|–-5--3----------------------|----------------------|-------20------|-------|
B|--------6--5--3-------------|—-8------8------13----|-----------20--|-------|
G|-----------------5--2p0-----|–-7pbr---7pbr---12b---|---------------|—19b---|
D|-------------------------2--|----------------------|---------------|-------|
A|----------------------------|----------------------|---------------|-------|
E|----------------------------|----------------------|---------------|-------| 


------------------------------------------------------------------------------
------------------------------------------------------------------------------


Guitar II (Billy Jones)

Intro (Clean Tone)

   .Q     .q    Qtw                    .Q    .q     Qtw
e|-------------------|---------------|-------------------|---------------|
B|—------------------|---------------|-------------------|---------------|
G|–-9-----9-----10---|---------------|–-9-----9-----10---|---------------|
D|--10----10----10---|---------------|--10----10----8----|---------------|
A|--10----10----8----|---------------|--10----10----8----|---------------|
E|--8-----8----------|---------------|--8-----8----------|---------------|

   .Q     .q    Qtw                    .Q    .q     Q
e|-------------------|---------------|-------------------|---------------|
B|—------------------|---------------|-------------------|---------------|
G|–-9-----9-----10---|---------------|–-9-----9-----10---|---------------|
D|--10----10----10---|---------------|--10----10----8----|---------------|
A|--10----10----8----|---------------|--10----10----8----|---------------|
E|--8-----8----------|---------------|--8-----8----------|---------------|

(Over Driven Tone)

    e  E  e  e  E  E  s  s e
e|–---------------------------|
B|--6--5--3-------------------|
G|-----------5--2--0----------|
D|--------------------2p0-----|
A|-------------------------3--|
E|----------------------------|


1st Verse (Clean tone)

    Q  E  q  e  q     Q  E  q  e  q     Q  e  q  e  q
e|--------0--0--0--|--------1--1--1--|--------0--0--0--|
B|-----1--1--1--1--|-----1--1--1--1--|-----1--1--1--1--|
G|--0--0--0--0--0--|-----2--2--2--2--|--0--0--0--0--0--|
D|--2--2--2--2--2--|--3--3--3--3--3--|--2--2--2--2--2--|
A|--3--------------|--3--------------|--3--------------|
E|-----------------|--1--------------|-----------------|


    Q  E  q  e  q     Q  E  q  e  q     Q  e  q  e  q  
e|--------1--1--1--|--------0--0--0--|--------0--0--0--|
B|-----1--1--1--1--|-----1--1--1--1--|-----1--1--1--1--|
G|-----2--2--2--2--|--0--0--0--0--0--|--0--0--0--0--0--|
D|--3--3--3--3--3--|--2--2--2--2--2--|--2--2--2--2--2--|
A|--3--------------|--3--------------|--3--------------|
E|--1--------------|-----------------|-----------------|


    Q  q  e  e  q     q  q  e  e  Q     q  e  q  e  q
e|-----0--0--0--0--|-----0--0--0--0--|--------0--0--0--|
B|-----1--1--1--1--|-----1--1--1--1--|-----1--1--1--1--|
G|-----2--2--2--2--|-----2--2--2--2--|--0--0--0--0--0--|
D|-----2--2--2--2--|-----2--2--2--2--|--2--2--2--2--2--|
A|--0--------------|--0--------------|--3--------------|
E|-----------------|-----------------|-----------------|


    Q  E  q  e  q     Q  E  q  e  q     Q  e  q  e  q 
e|-----3--3--3--3--|--------1--1--1--|--------1--1--1--|
B|-----3--3--3--3--|-----1--1--1--1--|-----1--1--1--1--|
G|-----0--0--0--0--|-----2--2--2--2--|-----2--2--2--2--|
D|-----0--0--0--0--|--3--3--3--3--3--|--3--3--3--3--3--|
A|--2--2--2--2--2--|--3--------------|--3--------------|
E|--3--3--3--3--3--|--1--------------|--1--------------|


    Q  E  q  e  q     Q  E  q  e  q     q   e    hte    q  e  q  e  q
e|--------0--0--0--|-----3--3--3--3--|------------1--|--------1--1--1--|
B|-----1--1--1--1--|-----3--3--3--3--|------1-----1--|-----1--1--1--1--|
G|--0--0--0--0--0--|-----0--0--0--0--|------2-----2--|-----2--2--2--2--|
D|--2--2--2--2--2--|-----0--0--0--0--|--3---3-----3--|--3--3--3--3--3--|
A|--3--------------|--2--2--2--2--2--|--3------------|--3--------------|
E|-----------------|--3--3--3--3--3--|--1------------|--1--------------|


1st Chorus

   .h     e  e     Q  E  q  E  E  e     Q  E  Q  E  E  E       
e|--0-----0--0--|--1--1--1--1--1--1--|--0--0--0--0--0--0--|
B|--0-----0--0--|--1--1--1--1--1--1--|--1--1--1--1--1--1--|
G|--0-----0--0--|--2--2--2--2--2--2--|--0--0--0--0--0--0--|
D|--2-----2--2--|--3--3--3--3--3--3--|--2--2--2--2--2--2--|
A|--2-----2--2--|--3--3--3--3--3--3--|--3--3--3--3--3--3--|
E|--0-----0--0--|--1--1--1--1--1--1--|--------------------|


    Q  E  q  E  E  e    .h     e  e     Q  E  Q  E  E  E        
e|--1--1--1--1--1--1--|--0-----0--0--|--1--1--1--1--1--1--|
B|--1--1--1--1--1--1--|--0-----0--0--|--1--1--1--1--1--1--|
G|--2--2--2--2--2--2--|--0-----0--0--|--2--2--2--2--2--2--|
D|--3--3--3--3--3--3--|--2-----2--2--|--3--3--3--3--3--3--|
A|--3--3--3--3--3--3--|--2-----2--2--|--3--3--3--3--3--3--|
E|--1--1--1--1--1--1--|--0-----0--0--|--1--1--1--1--1--1--|
 

(Over Driven )

    s s   q   s  s s   Q   s  s  E  Q   s s   q   s s   q            
e|--------3------------5-------|----7---------5---------3--|
B|-----------------------------|---------------------------|
G|--2/4-------4--4/5-------5--5/7-------4/5-------2/4------|
D|-----------------------------|---------------------------|
A|-----------------------------|---------------------------|
E|-----------------------------|---------------------------|

(Clean Tone) 


    Q  E  q  E  E  e     Q  E  Q  E  E  E     Q  E  Q  E  E  E     q  e  q  e  e  e  
e|--1--1--1--1--1--1--|--3--3--3--3--3--3--|--0--0--0--0--0--0--|--0--0--0--0--0--0--|
B|--3--3--3--3--3--3--|--0--0--0--0--0--0--|--1--1--1--1--1--1--|--1--1--1--1--1--1--|
G|--2--2--2--2--2--2--|--0--0--0—-0—-0--0--|--0--0--0--0--0--0--|--2--2--2--2--2--2--|
D|--0--0--0--0--0--0--|--0--0--0--0--0--0--|--2--2--2--2--2--2--|--2--2--2--2--2--2--|
A|--------------------|--2--2--2--2--2--2--|--3--3--3--3--3--3--|--0--0--0--0--0--0--|
E|--------------------|--3--3--3--3--3--3--|--------------------|--------------------|


    Qr   .q   .q     qr   .q   .q          
e|--------1----1--|--------3----3--|
B|--------1----1--|--------0----0--|
G|--------2----2--|--------0----0--|
D|--------3----3--|--------0----0--|
A|--------3----3--|--------2----2--|
E|--------1----1--|--------3----3--|
 

Intro Reprise (Clean Tone/ Over Driven on single notes)

  .Q     .q    Qt.q      s  s    h     .Q    .q     Q       e  E  e  e  E  E  s  s e
e|-------------------|---------------|-------------------|–---------------------------|
B|—------------------|---10p8--------|-------------------|--6--5--3-------------------|
G|–-9-----9-----10---|----------10---|–-9-----9-----10---|-----------5--2--0----------|
D|--10----10----10---|---------------|--10----10----8----|--------------------2p0-----|
A|--10----10----8----|---------------|--10----10----8----|-------------------------3--|
E|--8-----8----------|---------------|--8-----8----------|----------------------------|


2nd Verse (Clean tone)

    Q  E  q  e  q     Q  E  q  e  q     Q  e  q  e  q
e|--------0--0--0--|--------1--1--1--|--------0--0--0--|
B|-----1--1--1--1--|-----1--1--1--1--|-----1--1--1--1--|
G|--0--0--0--0--0--|-----2--2--2--2--|--0--0--0--0--0--|
D|--2--2--2--2--2--|--3--3--3--3--3--|--2--2--2--2--2--|
A|--3--------------|--3--------------|--3--------------|
E|-----------------|--1--------------|-----------------|


    Q  E  q  e  q     Q  E  q  e  q     Q  e  q  e  q  
e|--------1--1--1--|--------0--0--0--|--------0--0--0--|
B|-----1--1--1--1--|-----1--1--1--1--|-----1--1--1--1--|
G|-----2--2--2--2--|--0--0--0--0--0--|--0--0--0--0--0--|
D|--3--3--3--3--3--|--2--2--2--2--2--|--2--2--2--2--2--|
A|--3--------------|--3--------------|--3--------------|
E|--1--------------|-----------------|-----------------|


    Q  q  e  e  q     q  q  e  e  Q     q  e  q  e  q
e|-----0--0--0--0--|-----0--0--0--0--|--------0--0--0--|
B|-----1--1--1--1--|-----1--1--1--1--|-----1--1--1--1--|
G|-----2--2--2--2--|-----2--2--2--2--|--0--0--0--0--0--|
D|-----2--2--2--2--|-----2--2--2--2--|--2--2--2--2--2--|
A|--0--------------|--0--------------|--3--------------|
E|-----------------|-----------------|-----------------|


    Q  E  q  e  q     Q  E  q  e  q     Q  e  q  e  q 
e|-----3--3--3--3--|--------1--1--1--|--------1--1--1--|
B|-----3--3--3--3--|-----1--1--1--1--|-----1--1--1--1--|
G|-----0--0--0--0--|-----2--2--2--2--|-----2--2--2--2--|
D|-----0--0--0--0--|--3--3--3--3--3--|--3--3--3--3--3--|
A|--2--2--2--2--2--|--3--------------|--3--------------|
E|--3--3--3--3--3--|--1--------------|--1--------------|


    Q  E  q  e  q     Q  E  q  e  q     q   e    hte    q  e  q  e  q
e|--------0--0--0--|-----3--3--3--3--|------------1--|--------1--1--1--|
B|-----1--1--1--1--|-----3--3--3--3--|------1-----1--|-----1--1--1--1--|
G|--0--0--0--0--0--|-----0--0--0--0--|------2-----2--|-----2--2--2--2--|
D|--2--2--2--2--2--|-----0--0--0--0--|--3---3-----3--|--3--3--3--3--3--|
A|--3--------------|--2--2--2--2--2--|--3------------|--3--------------|
E|-----------------|--3--3--3--3--3--|--1------------|--1--------------|


2nd  Chorus

   .h     e  e     Q  E  q  E  E  e     Q  E  Q  E  E  E       
e|--0-----0--0--|--1--1--1--1--1--1--|--0--0--0--0--0--0--|
B|--0-----0--0--|--1--1--1--1--1--1--|--1--1--1--1--1--1--|
G|--0-----0--0--|--2--2--2--2--2--2--|--0--0--0--0--0--0--|
D|--2-----2--2--|--3--3--3--3--3--3--|--2--2--2--2--2--2--|
A|--2-----2--2--|--3--3--3--3--3--3--|--3--3--3--3--3--3--|
E|--0-----0--0--|--1--1--1--1--1--1--|--------------------|


    Q  E  q  E  E  e    .h     e  e     Q  E  Q  E  E  E        
e|--1--1--1--1--1--1--|--0-----0--0--|--1--1--1--1--1--1--|
B|--1--1--1--1--1--1--|--0-----0--0--|--1--1--1--1--1--1--|
G|--2--2--2--2--2--2--|--0-----0--0--|--2--2--2--2--2--2--|
D|--3--3--3--3--3--3--|--2-----2--2--|--3--3--3--3--3--3--|
A|--3--3--3--3--3--3--|--2-----2--2--|--3--3--3--3--3--3--|
E|--1--1--1--1--1--1--|--0-----0--0--|--1--1--1--1--1--1--|
 

(Over Driven )

    s s   q   s  s s   Q   s  s  E  Q   s s   q   s s   q            
e|--------3------------5-------|----7---------5---------3--|
B|-----------------------------|---------------------------|
G|--2/4-------4--4/5-------5--5/7-------4/5-------2/4------|
D|-----------------------------|---------------------------|
A|-----------------------------|---------------------------|
E|-----------------------------|---------------------------|

(Clean Tone) 


    Q  E  q  E  E  e     Q  E  Q  E  E  E     Q  E  Q  E  E  E     q  e  q  e  e  e  
e|--1--1--1--1--1--1--|--3--3--3--3--3--3--|--0--0--0--0--0--0--|--0--0--0--0--0--0--|
B|--3--3--3--3--3--3--|--0--0--0--0--0--0--|--1--1--1--1--1--1--|--1--1--1--1--1--1--|
G|--2--2--2--2--2--2--|--0--0--0—-0—-0--0--|--0--0--0--0--0--0--|--2--2--2--2--2--2--|
D|--0--0--0--0--0--0--|--0--0--0--0--0--0--|--2--2--2--2--2--2--|--2--2--2--2--2--2--|
A|--------------------|--2--2--2--2--2--2--|--3--3--3--3--3--3--|--0--0--0--0--0--0--|
E|--------------------|--3--3--3--3--3--3--|--------------------|--------------------|


    Qr   .q   .q     qr   .q   .q          
e|--------1----1--|--------3----3--|
B|--------1----1--|--------0----0--|
G|--------2----2--|--------0----0--|
D|--------3----3--|--------0----0--|
A|--------3----3--|--------2----2--|
E|--------1----1--|--------3----3--|
 

2nd Intro Reprise ( Slight Over Driven Tone)


  .Q     .q    Qtq       e   e    h     .Q    .q     Q      
e|-------------------|----------------|-------------------|
B|—------------------|---10--8--------|-------------------|
G|–-9-----9-----10---|-----------10---|–-9-----9-----10---|
D|--10----10----10---|----------------|--10----10----8----|
A|--10----10----8----|----------------|--10----10----8----|
E|--8-----8----------|----------------|--8-----8----------|



Main Solo (Over Driven)

    s s  E  e  e  s s  e   e  e    e h  Q  e      .q  hte   s  e  e  e  sr  s s s s s s s s s s
e|------------------------------|-------------|-----------|--------------------------------------|
B|------------------------------|----------5--|-----------|-------8--10-----8h10p8h10p8h10p8h10p-|
G|---------------------5--5-----|--5p7--7-----|--7pbr--5--|--6/9---------------------------------|
D|-------5--5-----5/7--------7--|-------------|-----------|--------------------------------------|
A|--5/7--------7----------------|-------------|-----------|--------------------------------------|
E|------------------------------|-------------|-----------|--------------------------------------|


 
    h  e   e  s s  e     .q      Q    e  Qtq   q  s e  e .e   
e|--------------------|---------------------|-----------------|
B|--8--10--8----------|---------------------|----------8--10--|
G|------------9\7--5--|--7pbr---7pbr--5--7--|--5--7/9---------|
D|--------------------|---------------------|-----------------|
A|--------------------|---------------------|-----------------|
E|--------------------|---------------------|-----------------|

     q    e   q   e      q        w
e|-------10-------10---------|---------|
B|--10b------10b------10pbr--|----8----|
G|---------------------------|---------|
D|---------------------------|---------|
A|---------------------------|---------|
E|---------------------------|---------|


(Clean Tone)

   .Q  q  E  q    .Q  Q  E  q    .Q  Q  E  q    .q  q  e  q  
e|--1--1--1--1--|--3--3--3--3--|--0--0--0--0--|--0--0--0--0--|
B|--3--3--3--3--|--0--0--0--0--|--1--1--1--1--|--1--1--1--1--|
G|--2--2--2--2--|--0--0--0—-0—-|--0--0--0--0--|--2--2--2--2--|
D|--0--0--0--0--|--0-----------|--2--2--2--2--|--2--2--2--2--|
A|--------------|--2-----------|--3-----------|--0-----------|
E|--------------|--3-----------|--------------|--------------|


    Qr   .q   .q     qr   .q   .q          
e|--------1----1--|--------3----3--|
B|--------1----1--|--------0----0--|
G|--------2----2--|--------0----0--|
D|--------3----3--|--------0----0--|
A|--------3----3--|--------2----2--|
E|--------1----1--|--------3----3--|
 


3rd Intro Reprise (Clean Tone/ Over Driven on single notes)


    .Q   .q     Qte      s  s    h     .Q    .q     Q       e  E  e  e  E  E  s  s e
e|-------------------|--10pbr---10pbr---8--|-------------------|–--------------------|
B|—------------------|---------------------|-------------------|---------------------|
G|–-9-----9-----10---|---------------------|–-9-----9-----10---|---7pbr---7pbr----5--|
D|--10----10----10---|---------------------|--10----10----8----|---------------------|
A|--10----10----8----|---------------------|--10----10----8----|---------------------|
E|--8-----8----------|---------------------|--8-----8----------|---------------------|



3rd Verse (Clean tone)

    Q  E  q  e  q     Q  E  q  e  q     Q  e  q  e  q
e|--------0--0--0--|--------1--1--1--|--------0--0--0--|
B|-----1--1--1--1--|-----1--1--1--1--|-----1--1--1--1--|
G|--0--0--0--0--0--|-----2--2--2--2--|--0--0--0--0--0--|
D|--2--2--2--2--2--|--3--3--3--3--3--|--2--2--2--2--2--|
A|--3--------------|--3--------------|--3--------------|
E|-----------------|--1--------------|-----------------|


    Q  E  q  e  q     Q  E  q  e  q     Q  e  q  e  q  
e|--------1--1--1--|--------0--0--0--|--------0--0--0--|
B|-----1--1--1--1--|-----1--1--1--1--|-----1--1--1--1--|
G|-----2--2--2--2--|--0--0--0--0--0--|--0--0--0--0--0--|
D|--3--3--3--3--3--|--2--2--2--2--2--|--2--2--2--2--2--|
A|--3--------------|--3--------------|--3--------------|
E|--1--------------|-----------------|-----------------|


    Q  q  e  e  q     q  q  e  e  Q     q  e  q  e  q
e|-----0--0--0--0--|-----0--0--0--0--|--------0--0--0--|
B|-----1--1--1--1--|-----1--1--1--1--|-----1--1--1--1--|
G|-----2--2--2--2--|-----2--2--2--2--|--0--0--0--0--0--|
D|-----2--2--2--2--|-----2--2--2--2--|--2--2--2--2--2--|
A|--0--------------|--0--------------|--3--------------|
E|-----------------|-----------------|-----------------|


    Q  E  q  e  q     Q  E  q  e  q     Q  e  q  e  q 
e|-----3--3--3--3--|--------1--1--1--|--------1--1--1--|
B|-----3--3--3--3--|-----1--1--1--1--|-----1--1--1--1--|
G|-----0--0--0--0--|-----2--2--2--2--|-----2--2--2--2--|
D|-----0--0--0--0--|--3--3--3--3--3--|--3--3--3--3--3--|
A|--2--2--2--2--2--|--3--------------|--3--------------|
E|--3--3--3--3--3--|--1--------------|--1--------------|


    Q  E  q  e  q     Q  E  q  e  q     q   e    hte    q  e  q  e  q
e|--------0--0--0--|-----3--3--3--3--|------------1--|--------1--1--1--|
B|-----1--1--1--1--|-----3--3--3--3--|------1-----1--|-----1--1--1--1--|
G|--0--0--0--0--0--|-----0--0--0--0--|------2-----2--|-----2--2--2--2--|
D|--2--2--2--2--2--|-----0--0--0--0--|--3---3-----3--|--3--3--3--3--3--|
A|--3--------------|--2--2--2--2--2--|--3------------|--3--------------|
E|-----------------|--3--3--3--3--3--|--1------------|--1--------------|


3rd  Chorus

   .h     e  e     Q  E  q  E  E  e     Q  E  Q  E  E  E       
e|--0-----0--0--|--1--1--1--1--1--1--|--0--0--0--0--0--0--|
B|--0-----0--0--|--1--1--1--1--1--1--|--1--1--1--1--1--1--|
G|--0-----0--0--|--2--2--2--2--2--2--|--0--0--0--0--0--0--|
D|--2-----2--2--|--3--3--3--3--3--3--|--2--2--2--2--2--2--|
A|--2-----2--2--|--3--3--3--3--3--3--|--3--3--3--3--3--3--|
E|--0-----0--0--|--1--1--1--1--1--1--|--------------------|


    Q  E  q  E  E  e    .h     e  e     Q  E  Q  E  E  E        
e|--1--1--1--1--1--1--|--0-----0--0--|--1--1--1--1--1--1--|
B|--1--1--1--1--1--1--|--0-----0--0--|--1--1--1--1--1--1--|
G|--2--2--2--2--2--2--|--0-----0--0--|--2--2--2--2--2--2--|
D|--3--3--3--3--3--3--|--2-----2--2--|--3--3--3--3--3--3--|
A|--3--3--3--3--3--3--|--2-----2--2--|--3--3--3--3--3--3--|
E|--1--1--1--1--1--1--|--0-----0--0--|--1--1--1--1--1--1--|
 

(Over Driven )

    s s   q   s  s s   Q   s  s  E  Q   s s   q   s s   q            
e|--------3------------5-------|----7---------5---------3--|
B|-----------------------------|---------------------------|
G|--2/4-------4--4/5-------5--5/7-------4/5-------2/4------|
D|-----------------------------|---------------------------|
A|-----------------------------|---------------------------|
E|-----------------------------|---------------------------|

(Clean Tone) 


    Q  E  q  E  E  e     Q  E  Q  E  E  E     Q  E  Q  E  E  E     q  e  q  e  e  e  
e|--1--1--1--1--1--1--|--3--3--3--3--3--3--|--0--0--0--0--0--0--|--0--0--0--0--0--0--|
B|--3--3--3--3--3--3--|--0--0--0--0--0--0--|--1--1--1--1--1--1--|--1--1--1--1--1--1--|
G|--2--2--2--2--2--2--|--0--0--0—-0—-0--0--|--0--0--0--0--0--0--|--2--2--2--2--2--2--|
D|--0--0--0--0--0--0--|--0--0--0--0--0--0--|--2--2--2--2--2--2--|--2--2--2--2--2--2--|
A|--------------------|--2--2--2--2--2--2--|--3--3--3--3--3--3--|--0--0--0--0--0--0--|
E|--------------------|--3--3--3--3--3--3--|--------------------|--------------------|


    Qr   .q   .q     qr   .q   .q          
e|--------1----1--|--------3----3--|
B|--------1----1--|--------0----0--|
G|--------2----2--|--------0----0--|
D|--------3----3--|--------0----0--|
A|--------3----3--|--------2----2--|
E|--------1----1--|--------3----3--|
 

  Intro Reprise (Over Driven Tone on single notes)


   .Q     .q    Qth      e  e  e  e    
e|-------------------|---------------|
B|—------------------|---6--5--3-----|
G|–-9-----9-----10---|------------5--|
D|--10----10----10---|---------------|
A|--10----10----8----|---------------|
E|--8-----8----------|---------------|


Outro (Clean Tone)

 
    Q    .q   .q     qr   .q   .q     Qr   .q   .q     qr   .q   .q           
e|--------1----1--|--------3----3--|--------1----1--|--------3----3--|
B|--3-----1----1--|--------0----0--|--------1----1--|--------0----0--|
G|--------2----2--|--------0----0--|--------2----2--|--------0----0--|
D|--------3----3--|--------0----0--|--------3----3--|--------0----0--|
A|--------3----3--|--------2----2--|--------3----3--|--------2----2--|
E|--------1----1--|--------3----3--|--------1----1--|--------3----3--|
 

    Qr   .q   .q     qr   .q   .q    .Q     .q    Qth     e  e  e  e    
e|--------1----1--|--------3----3--|-------------------|--------------|
B|--------1----1--|--------0----0--|—------------------|--6--5--3-----|
G|--------2----2--|--------0----0--|–-9-----9-----10---|-----------5--|
D|--------3----3--|--------0----0--|--10----10----10---|--------------|
A|--------3----3--|--------2----2--|--10----10----8----|--------------|
E|--------1----1--|--------3----3--|--8-----8----------|--------------|


   .Q    .q     Q
e|-------------------|----------------------------|
B|-------------------|--6--5--3-------------------|
G|–-9-----9-----10---|-----------5--2--0----------|
D|--10----10----8----|--------------------2p0-----|
A|--10----10----8----|-------------------------3--|
E|--8-----8----------|----------------------------|



   .Q     .q    Qtw                         w
e|-------------------|---------------|-------------|
B|—------------------|---------------|-------------|
G|–-9-----9-----10---|---------------|–-----5------|
D|--10----10----10---|---------------|------5------|
A|--10----10----8----|---------------|------5------|
E|--8-----8----------|---------------|-------------|

--------------------------------------------------------------------------------------
--------------------------------------------------------------------------------------


Guitar III (Henry Paul)



Intro (Acoustic)

   .Q    .q   Qtw                    .Q   .q    Qtw
e|--0----0----1----|---------------|--0----0----1----|---------------|
B|—-1----1----1----|---------------|--1----1----1----|---------------|
G|–-0----0----2----|---------------|–-0----0----2----|---------------|
D|--2----2----3----|---------------|--2----2----3----|---------------|
A|--3----3----3----|---------------|--3----3----3----|---------------|
E|------------1----|---------------|------------1----|---------------|

   .Q   .q   Qtw                    .Q    .q    Qtw
e|--0----0----1----|---------------|--0----0----1-----|---------------|
B|—-1----1----1----|---------------|--1----1----1-----|---------------|
G|–-0----0----2----|---------------|–-0----0----2-----|---------------|
D|--2----2----3----|---------------|--2----2----3-----|---------------|
A|--3----3----3----|---------------|--3----3----3-----|---------------|
E|------------1----|---------------|------------1-----|---------------|


1st Verse 

    Q  E  q  e  e  E     Q  E  q  e  e  e     Q  e  q  e  e  e
e|--0--1--0--0--0--0--|--1--1--1--1--1--1--|--0--0--0--0--0--0--|
B|--1--1--1--1--1--1--|--1--1--1--1--1--1--|--1--1--1--1--1--1--|
G|--0--0--0--0--0--0--|--2--2--2--2--2--2--|--0--0--0--0--0--0--|
D|--2--2--2--2--2--2--|--3--3--3--3--3--3--|--2--2--2--2--2--2--|
A|--3--3--3--3--3--3--|--3--3--3--3--3--3--|--3--3--3--3--3--3--|
E|--------------------|--1--1--1--1--1--1--|--------------------|


    Q  E  q  e  e  E     Q  E  q  e  e  e     Q  e  e  q  q 
e|--1--1--1--1--1--1--|--0--0--0--0--0--0--|--0--0--0--0--0--|
B|--1--1--1--1--1--1--|--1--1--1--1--1--1--|--1--1--1--1--1--|
G|--2--2--2--2--2--2--|--0--0--0--0--0--0--|--0--0--0--0--0--|
D|--3--3--3--3--3--3--|--2--2--2--2--2--2--|--2--2--2--2--2--|
A|--3--3--3--3--3--3--|--3--3--3--3--3--3--|--3--3--3--3--3--|
E|--1--1--1--1--1--1--|--------------------|-----------------|


    Q  E  q  e  e  E     E  E  e  q  e  e  e     Q  e  q  e  e  e
e|--0--0--0--0--0--0--|--0--0--0--0--0--0--0--|--0--0--0--0--0--0--|
B|--1--1--1--1--1--1--|--1--1--1--1--1--1--1--|--1--1--1--1--1--1--|
G|--2--2--2--2--2--2--|--2--2--2--2--2--2--2--|--0--0--0--0--0--0--|
D|--2--2--2--2--2--2--|--2--2--2--2--2--2--2--|--2--2--2--2--2--2--|
A|--0--0--0--0--0--0--|--0--0--0--0--0--0--0--|--3--3--3--3--3--3--|
E|--------------------|-----------------------|--------------------|


    Q  E  q  e  e  E     Q  E  q  e  e  e     Q  e  q  e  e  e
e|--3--3--3--3--3--3--|--1--1--1--1--1--1--|--1--1--1--1--1--1--|
B|--3--3--3--3--3--3--|--1--1--1--1--1--1--|--1--1--1--1--1--1--|
G|--0--0--0--0--0--0--|--2--2--2--2--2--2--|--2--2--2--2--2--2--|
D|--0--0--0--0--0--0--|--3--3--3--3--3--3--|--3--3--3--3--3--3--|
A|--2--2--2--2--2--2--|--3--3--3--3--3--3--|--3--3--3--3--3--3--|
E|--3--3--3--3--3--3--|--1--1--1--1--1--1--|--1--1--1--1--1--1--|


    Q  E  q  e  e  E     Q  E  q  e  e  e    .q    .q    qte    .q  q  q
e|--0--0--0--0--0--0--|--3--3--3--3--3--3--|--1-----1----1----|--1--1--1----|
B|--1--1--1--1--1--1--|--0--0--0--0--0--0--|--1-----1----1----|--1--1--1----|
G|--0--0--0--0--0--0--|--0--0--0--0--0--0--|--2-----2----2----|--2--2--2----|
D|--2--2--2--2--2--2--|--0--0--0--0--0--0--|--3-----3----3----|--3--3--3----|
A|--3--3--3--3--3--3--|--2--2--2--2--2--2--|--3-----3----3----|--3--3--3----|
E|--------------------|--3--3--3--3--3--3--|--1-----1----1----|--1--1--1----|


1st Chorus

    Q  E  q  E  E  e     Q  E  Q  E  E  E     Q  E  Q  E  E  e
e|--0--0--0--0--0--0--|--1--1--1--1--1--1--|--0--0--0--0--0--0--|
B|--0--0--0--0--0--0--|--1--1--1--1--1--1--|--1--1--1--1--1--1--|
G|--0--0--0--0--0--0--|--2--2--2--2--2--2--|--0--0--0--0--0--0--|
D|--2--2--2--2--2--2--|--3--3--3--3--3--3--|--2--2--2--2--2--2--|
A|--2--2--2--2--2--2--|--3--3--3--3--3--3--|--3--3--3--3--3--3--|
E|--0--0--0--0--0--0--|--1--1--1--1--1--1--|--------------------|


    Q  E  q  E  E  e     Q  E  Q  E  E  E     Q  E  Q  E  E  e
e|--1--1--1--1--1--1--|--0--0--0--0--0--0--|--1--1--1--1--1--1--|
B|--1--1--1--1--1--1--|--0--0--0--0--0--0--|--1--1--1--1--1--1--|
G|--2--2--2--2--2--2--|--0--0--0--0--0--0--|--2--2--2--2--2--2--|
D|--3--3--3--3--3--3--|--2--2--2--2--2--2--|--3--3--3--3--3--3--|
A|--3--3--3--3--3--3--|--2--2--2--2--2--2--|--3--3--3--3--3--3--|
E|--1--1--1--1--1--1--|--0--0--0--0--0--0--|--1--1--1--1--1--1--|
 

    Q  E  q  E  E  e     Q  E  Q  E  E  E     Q  E  Q  E  E  E   
e|--3--3--3--3--3--3--|--3--3--3--3--3--3--|--1--1--1--1--1--1--|
B|--0--0--0--0--0--0--|--0--0--0--0--0--0--|--3--3--3--3--3--3--|
G|--0--0--0—-0—-0--0--|--0--0--0--0--0--0--|--2--2--2--2--2--2--|
D|--0--0--0--0--0--0--|--0--0--0--0--0--0--|--0--0--0--0--0--0--|
A|--2--2--2--2--2--2--|--2--2--2--2--2--2--|--------------------|
E|--3--3--3--3--3--3--|--3--3--3--3--3--3--|--------------------|


    Q  E  q  E  E  e     Q  E  Q  E  E  E     Q  E  Q  E  E  E   
e|--3--3--3--3--3--3--|--0--0--0--0--0--0--|--0--0--0--0--0--0--|
B|--0--0--0--0--0--0--|--1--1--1--1--1--1--|--1--1--1--1--1--1--|
G|--0--0--0—-0—-0--0--|--0--0--0--0--0--0--|--2--2--2--2--2--2--|
D|--0--0--0--0--0--0--|--2--2--2--2--2--2--|--2--2--2--2--2--2--|
A|--2--2--2--2--2--2--|--3--3--3--3--3--3--|--0--0--0--0--0--0--|
E|--3--3--3--3--3--3--|--------------------|--------------------|


    Q  E  q  E  E  e     Q  E  Q  E  E  E           
e|--1--1--1--1--1--1--|--3--3--3--3--3--3--|
B|--1--1--1--1--1--1--|--0--0--0--0--0--0--|
G|--2--2--2--2--2--2--|--0--0--0--0--0--0--|
D|--3--3--3--3--3--3--|--0--0--0--0--0--0--|
A|--3--3--3--3--3--3--|--2--2--2--2--2--2--|
E|--1--1--1--1--1--1--|--3--3--3--3--3--3--|
 

Intro Reprise 


   .Q    .q   Qtw                    .Q   .q    Qtw
e|--0----0----1----|---------------|--0----0----1----|---------------|
B|—-1----1----1----|---------------|--1----1----1----|---------------|
G|–-0----0----2----|---------------|–-0----0----2----|---------------|
D|--2----2----3----|---------------|--2----2----3----|---------------|
A|--3----3----3----|---------------|--3----3----3----|---------------|
E|------------1----|---------------|------------1----|---------------|


2nd Verse 

    Q  E  q  e  e  E     Q  E  q  e  e  e     Q  e  q  e  e  e
e|--0--1--0--0--0--0--|--1--1--1--1--1--1--|--0--0--0--0--0--0--|
B|--1--1--1--1--1--1--|--1--1--1--1--1--1--|--1--1--1--1--1--1--|
G|--0--0--0--0--0--0--|--2--2--2--2--2--2--|--0--0--0--0--0--0--|
D|--2--2--2--2--2--2--|--3--3--3--3--3--3--|--2--2--2--2--2--2--|
A|--3--3--3--3--3--3--|--3--3--3--3--3--3--|--3--3--3--3--3--3--|
E|--------------------|--1--1--1--1--1--1--|--------------------|


    Q  E  q  e  e  E     Q  E  q  e  e  e     Q  e  e  q  q 
e|--1--1--1--1--1--1--|--0--0--0--0--0--0--|--0--0--0--0--0--|
B|--1--1--1--1--1--1--|--1--1--1--1--1--1--|--1--1--1--1--1--|
G|--2--2--2--2--2--2--|--0--0--0--0--0--0--|--0--0--0--0--0--|
D|--3--3--3--3--3--3--|--2--2--2--2--2--2--|--2--2--2--2--2--|
A|--3--3--3--3--3--3--|--3--3--3--3--3--3--|--3--3--3--3--3--|
E|--1--1--1--1--1--1--|--------------------|-----------------|


    Q  E  q  e  e  E     E  E  e  q  e  e  e     Q  e  q  e  e  e
e|--0--0--0--0--0--0--|--0--0--0--0--0--0--0--|--0--0--0--0--0--0--|
B|--1--1--1--1--1--1--|--1--1--1--1--1--1--1--|--1--1--1--1--1--1--|
G|--2--2--2--2--2--2--|--2--2--2--2--2--2--2--|--0--0--0--0--0--0--|
D|--2--2--2--2--2--2--|--2--2--2--2--2--2--2--|--2--2--2--2--2--2--|
A|--0--0--0--0--0--0--|--0--0--0--0--0--0--0--|--3--3--3--3--3--3--|
E|--------------------|-----------------------|--------------------|


    Q  E  q  e  e  E     Q  E  q  e  e  e     Q  e  q  e  e  e
e|--3--3--3--3--3--3--|--1--1--1--1--1--1--|--1--1--1--1--1--1--|
B|--3--3--3--3--3--3--|--1--1--1--1--1--1--|--1--1--1--1--1--1--|
G|--0--0--0--0--0--0--|--2--2--2--2--2--2--|--2--2--2--2--2--2--|
D|--0--0--0--0--0--0--|--3--3--3--3--3--3--|--3--3--3--3--3--3--|
A|--2--2--2--2--2--2--|--3--3--3--3--3--3--|--3--3--3--3--3--3--|
E|--3--3--3--3--3--3--|--1--1--1--1--1--1--|--1--1--1--1--1--1--|


    Q  E  q  e  e  E     Q  E  q  e  e  e    .q    .q    qte    .q  q  q
e|--0--0--0--0--0--0--|--3--3--3--3--3--3--|--1-----1----1----|--1--1--1----|
B|--1--1--1--1--1--1--|--0--0--0--0--0--0--|--1-----1----1----|--1--1--1----|
G|--0--0--0--0--0--0--|--0--0--0--0--0--0--|--2-----2----2----|--2--2--2----|
D|--2--2--2--2--2--2--|--0--0--0--0--0--0--|--3-----3----3----|--3--3--3----|
A|--3--3--3--3--3--3--|--2--2--2--2--2--2--|--3-----3----3----|--3--3--3----|
E|--------------------|--3--3--3--3--3--3--|--1-----1----1----|--1--1--1----|


2nd Chorus


    Q  E  q  E  E  e     Q  E  Q  E  E  E     Q  E  Q  E  E  e
e|--0--0--0--0--0--0--|--1--1--1--1--1--1--|--0--0--0--0--0--0--|
B|--0--0--0--0--0--0--|--1--1--1--1--1--1--|--1--1--1--1--1--1--|
G|--0--0--0--0--0--0--|--2--2--2--2--2--2--|--0--0--0--0--0--0--|
D|--2--2--2--2--2--2--|--3--3--3--3--3--3--|--2--2--2--2--2--2--|
A|--2--2--2--2--2--2--|--3--3--3--3--3--3--|--3--3--3--3--3--3--|
E|--0--0--0--0--0--0--|--1--1--1--1--1--1--|--------------------|


    Q  E  q  E  E  e     Q  E  Q  E  E  E     Q  E  Q  E  E  e
e|--1--1--1--1--1--1--|--0--0--0--0--0--0--|--1--1--1--1--1--1--|
B|--1--1--1--1--1--1--|--0--0--0--0--0--0--|--1--1--1--1--1--1--|
G|--2--2--2--2--2--2--|--0--0--0--0--0--0--|--2--2--2--2--2--2--|
D|--3--3--3--3--3--3--|--2--2--2--2--2--2--|--3--3--3--3--3--3--|
A|--3--3--3--3--3--3--|--2--2--2--2--2--2--|--3--3--3--3--3--3--|
E|--1--1--1--1--1--1--|--0--0--0--0--0--0--|--1--1--1--1--1--1--|
 

    Q  E  q  E  E  e     Q  E  Q  E  E  E     Q  E  Q  E  E  E   
e|--3--3--3--3--3--3--|--3--3--3--3--3--3--|--1--1--1--1--1--1--|
B|--0--0--0--0--0--0--|--0--0--0--0--0--0--|--3--3--3--3--3--3--|
G|--0--0--0—-0—-0--0--|--0--0--0--0--0--0--|--2--2--2--2--2--2--|
D|--0--0--0--0--0--0--|--0--0--0--0--0--0--|--0--0--0--0--0--0--|
A|--2--2--2--2--2--2--|--2--2--2--2--2--2--|--------------------|
E|--3--3--3--3--3--3--|--3--3--3--3--3--3--|--------------------|


    Q  E  q  E  E  e     Q  E  Q  E  E  E     Q  E  Q  E  E  E   
e|--3--3--3--3--3--3--|--0--0--0--0--0--0--|--0--0--0--0--0--0--|
B|--0--0--0--0--0--0--|--1--1--1--1--1--1--|--1--1--1--1--1--1--|
G|--0--0--0—-0—-0--0--|--0--0--0--0--0--0--|--2--2--2--2--2--2--|
D|--0--0--0--0--0--0--|--2--2--2--2--2--2--|--2--2--2--2--2--2--|
A|--2--2--2--2--2--2--|--3--3--3--3--3--3--|--0--0--0--0--0--0--|
E|--3--3--3--3--3--3--|--------------------|--------------------|


    Q  E  q  E  E  e     Q  E  Q  E  E  E           
e|--1--1--1--1--1--1--|--3--3--3--3--3--3--|
B|--1--1--1--1--1--1--|--0--0--0--0--0--0--|
G|--2--2--2--2--2--2--|--0--0--0--0--0--0--|
D|--3--3--3--3--3--3--|--0--0--0--0--0--0--|
A|--3--3--3--3--3--3--|--2--2--2--2--2--2--|
E|--1--1--1--1--1--1--|--3--3--3--3--3--3--|
 

2nd Intro Reprise 


   .Q    .q   Qtw                    .Q   .q    Qtw
e|--0----0----1----|---------------|--0----0----1----|---------------|
B|—-1----1----1----|---------------|--1----1----1----|---------------|
G|–-0----0----2----|---------------|–-0----0----2----|---------------|
D|--2----2----3----|---------------|--2----2----3----|---------------|
A|--3----3----3----|---------------|--3----3----3----|---------------|
E|------------1----|---------------|------------1----|---------------|

Main Solo


    Q  E  q  E  E  e     Q  E  Q  E  E  E     Q  E  Q  E  E  e
e|--0--0--0--0--0--0--|--1--1--1--1--1--1--|--0--0--0--0--0--0--|
B|--0--0--0--0--0--0--|--1--1--1--1--1--1--|--1--1--1--1--1--1--|
G|--0--0--0--0--0--0--|--2--2--2--2--2--2--|--0--0--0--0--0--0--|
D|--2--2--2--2--2--2--|--3--3--3--3--3--3--|--2--2--2--2--2--2--|
A|--2--2--2--2--2--2--|--3--3--3--3--3--3--|--3--3--3--3--3--3--|
E|--0--0--0--0--0--0--|--1--1--1--1--1--1--|--------------------|


    Q  E  q  E  E  e     Q  E  Q  E  E  E     Q  E  Q  E  E  e
e|--1--1--1--1--1--1--|--0--0--0--0--0--0--|--1--1--1--1--1--1--|
B|--1--1--1--1--1--1--|--0--0--0--0--0--0--|--1--1--1--1--1--1--|
G|--2--2--2--2--2--2--|--0--0--0--0--0--0--|--2--2--2--2--2--2--|
D|--3--3--3--3--3--3--|--2--2--2--2--2--2--|--3--3--3--3--3--3--|
A|--3--3--3--3--3--3--|--2--2--2--2--2--2--|--3--3--3--3--3--3--|
E|--1--1--1--1--1--1--|--0--0--0--0--0--0--|--1--1--1--1--1--1--|
 

    Q  E  q  E  E  e     Q  E  Q  E  E  E     Q  E  Q  E  E  E   
e|--3--3--3--3--3--3--|--3--3--3--3--3--3--|--1--1--1--1--1--1--|
B|--0--0--0--0--0--0--|--0--0--0--0--0--0--|--3--3--3--3--3--3--|
G|--0--0--0—-0—-0--0--|--0--0--0--0--0--0--|--2--2--2--2--2--2--|
D|--0--0--0--0--0--0--|--0--0--0--0--0--0--|--0--0--0--0--0--0--|
A|--2--2--2--2--2--2--|--2--2--2--2--2--2--|--------------------|
E|--3--3--3--3--3--3--|--3--3--3--3--3--3--|--------------------|


    Q  E  q  E  E  e     Q  E  Q  E  E  E     Q  E  Q  E  E  E   
e|--3--3--3--3--3--3--|--0--0--0--0--0--0--|--0--0--0--0--0--0--|
B|--0--0--0--0--0--0--|--1--1--1--1--1--1--|--1--1--1--1--1--1--|
G|--0--0--0—-0—-0--0--|--0--0--0--0--0--0--|--2--2--2--2--2--2--|
D|--0--0--0--0--0--0--|--2--2--2--2--2--2--|--2--2--2--2--2--2--|
A|--2--2--2--2--2--2--|--3--3--3--3--3--3--|--0--0--0--0--0--0--|
E|--3--3--3--3--3--3--|--------------------|--------------------|


    Q  E  q  E  E  e     Q  E  Q  E  E  E           
e|--1--1--1--1--1--1--|--3--3--3--3--3--3--|
B|--1--1--1--1--1--1--|--0--0--0--0--0--0--|
G|--2--2--2--2--2--2--|--0--0--0--0--0--0--|
D|--3--3--3--3--3--3--|--0--0--0--0--0--0--|
A|--3--3--3--3--3--3--|--2--2--2--2--2--2--|
E|--1--1--1--1--1--1--|--3--3--3--3--3--3--|
 

3rd Intro Reprise 


   .Q    .q   Qtw                    .Q   .q    Qtw
e|--0----0----1----|---------------|--0----0----1----|---------------|
B|—-1----1----1----|---------------|--1----1----1----|---------------|
G|–-0----0----2----|---------------|–-0----0----2----|---------------|
D|--2----2----3----|---------------|--2----2----3----|---------------|
A|--3----3----3----|---------------|--3----3----3----|---------------|
E|------------1----|---------------|------------1----|---------------|

3rd Verse

    Q  E  q  e  e  E     Q  E  q  e  e  e     Q  e  q  e  e  e
e|--0--1--0--0--0--0--|--1--1--1--1--1--1--|--0--0--0--0--0--0--|
B|--1--1--1--1--1--1--|--1--1--1--1--1--1--|--1--1--1--1--1--1--|
G|--0--0--0--0--0--0--|--2--2--2--2--2--2--|--0--0--0--0--0--0--|
D|--2--2--2--2--2--2--|--3--3--3--3--3--3--|--2--2--2--2--2--2--|
A|--3--3--3--3--3--3--|--3--3--3--3--3--3--|--3--3--3--3--3--3--|
E|--------------------|--1--1--1--1--1--1--|--------------------|


    Q  E  q  e  e  E     Q  E  q  e  e  e     Q  e  e  q  q 
e|--1--1--1--1--1--1--|--0--0--0--0--0--0--|--0--0--0--0--0--|
B|--1--1--1--1--1--1--|--1--1--1--1--1--1--|--1--1--1--1--1--|
G|--2--2--2--2--2--2--|--0--0--0--0--0--0--|--0--0--0--0--0--|
D|--3--3--3--3--3--3--|--2--2--2--2--2--2--|--2--2--2--2--2--|
A|--3--3--3--3--3--3--|--3--3--3--3--3--3--|--3--3--3--3--3--|
E|--1--1--1--1--1--1--|--------------------|-----------------|


    Q  E  q  e  e  E     E  E  e  q  e  e  e     Q  e  q  e  e  e
e|--0--0--0--0--0--0--|--0--0--0--0--0--0--0--|--0--0--0--0--0--0--|
B|--1--1--1--1--1--1--|--1--1--1--1--1--1--1--|--1--1--1--1--1--1--|
G|--2--2--2--2--2--2--|--2--2--2--2--2--2--2--|--0--0--0--0--0--0--|
D|--2--2--2--2--2--2--|--2--2--2--2--2--2--2--|--2--2--2--2--2--2--|
A|--0--0--0--0--0--0--|--0--0--0--0--0--0--0--|--3--3--3--3--3--3--|
E|--------------------|-----------------------|--------------------|


    Q  E  q  e  e  E     Q  E  q  e  e  e     Q  e  q  e  e  e
e|--3--3--3--3--3--3--|--1--1--1--1--1--1--|--1--1--1--1--1--1--|
B|--3--3--3--3--3--3--|--1--1--1--1--1--1--|--1--1--1--1--1--1--|
G|--0--0--0--0--0--0--|--2--2--2--2--2--2--|--2--2--2--2--2--2--|
D|--0--0--0--0--0--0--|--3--3--3--3--3--3--|--3--3--3--3--3--3--|
A|--2--2--2--2--2--2--|--3--3--3--3--3--3--|--3--3--3--3--3--3--|
E|--3--3--3--3--3--3--|--1--1--1--1--1--1--|--1--1--1--1--1--1--|


    Q  E  q  e  e  E     Q  E  q  e  e  e    .q    .q    qte    .q  q  q
e|--0--0--0--0--0--0--|--3--3--3--3--3--3--|--1-----1----1----|--1--1--1----|
B|--1--1--1--1--1--1--|--0--0--0--0--0--0--|--1-----1----1----|--1--1--1----|
G|--0--0--0--0--0--0--|--0--0--0--0--0--0--|--2-----2----2----|--2--2--2----|
D|--2--2--2--2--2--2--|--0--0--0--0--0--0--|--3-----3----3----|--3--3--3----|
A|--3--3--3--3--3--3--|--2--2--2--2--2--2--|--3-----3----3----|--3--3--3----|
E|--------------------|--3--3--3--3--3--3--|--1-----1----1----|--1--1--1----|


3rd Chorus


    Q  E  q  E  E  e     Q  E  Q  E  E  E     Q  E  Q  E  E  e
e|--0--0--0--0--0--0--|--1--1--1--1--1--1--|--0--0--0--0--0--0--|
B|--0--0--0--0--0--0--|--1--1--1--1--1--1--|--1--1--1--1--1--1--|
G|--0--0--0--0--0--0--|--2--2--2--2--2--2--|--0--0--0--0--0--0--|
D|--2--2--2--2--2--2--|--3--3--3--3--3--3--|--2--2--2--2--2--2--|
A|--2--2--2--2--2--2--|--3--3--3--3--3--3--|--3--3--3--3--3--3--|
E|--0--0--0--0--0--0--|--1--1--1--1--1--1--|--------------------|


    Q  E  q  E  E  e     Q  E  Q  E  E  E     Q  E  Q  E  E  e
e|--1--1--1--1--1--1--|--0--0--0--0--0--0--|--1--1--1--1--1--1--|
B|--1--1--1--1--1--1--|--0--0--0--0--0--0--|--1--1--1--1--1--1--|
G|--2--2--2--2--2--2--|--0--0--0--0--0--0--|--2--2--2--2--2--2--|
D|--3--3--3--3--3--3--|--2--2--2--2--2--2--|--3--3--3--3--3--3--|
A|--3--3--3--3--3--3--|--2--2--2--2--2--2--|--3--3--3--3--3--3--|
E|--1--1--1--1--1--1--|--0--0--0--0--0--0--|--1--1--1--1--1--1--|
 

    Q  E  q  E  E  e     Q  E  Q  E  E  E     Q  E  Q  E  E  E   
e|--3--3--3--3--3--3--|--3--3--3--3--3--3--|--1--1--1--1--1--1--|
B|--0--0--0--0--0--0--|--0--0--0--0--0--0--|--3--3--3--3--3--3--|
G|--0--0--0—-0—-0--0--|--0--0--0--0--0--0--|--2--2--2--2--2--2--|
D|--0--0--0--0--0--0--|--0--0--0--0--0--0--|--0--0--0--0--0--0--|
A|--2--2--2--2--2--2--|--2--2--2--2--2--2--|--------------------|
E|--3--3--3--3--3--3--|--3--3--3--3--3--3--|--------------------|


    Q  E  q  E  E  e     Q  E  Q  E  E  E     Q  E  Q  E  E  E   
e|--3--3--3--3--3--3--|--0--0--0--0--0--0--|--0--0--0--0--0--0--|
B|--0--0--0--0--0--0--|--1--1--1--1--1--1--|--1--1--1--1--1--1--|
G|--0--0--0—-0—-0--0--|--0--0--0--0--0--0--|--2--2--2--2--2--2--|
D|--0--0--0--0--0--0--|--2--2--2--2--2--2--|--2--2--2--2--2--2--|
A|--2--2--2--2--2--2--|--3--3--3--3--3--3--|--0--0--0--0--0--0--|
E|--3--3--3--3--3--3--|--------------------|--------------------|


    Q  E  q  E  E  e     Q  E  Q  E  E  E           
e|--1--1--1--1--1--1--|--3--3--3--3--3--3--|
B|--1--1--1--1--1--1--|--0--0--0--0--0--0--|
G|--2--2--2--2--2--2--|--0--0--0--0--0--0--|
D|--3--3--3--3--3--3--|--0--0--0--0--0--0--|
A|--3--3--3--3--3--3--|--2--2--2--2--2--2--|
E|--1--1--1--1--1--1--|--3--3--3--3--3--3--|
 
4th Intro Reprise 


   .Q    .q   Qtw                   
e|--0----0----1----|---------------|
B|—-1----1----1----|---------------|
G|–-0----0----2----|---------------|
D|--2----2----3----|---------------|
A|--3----3----3----|---------------|
E|------------1----|---------------|


Outro


    Q  E  q  E  E  e     Q  E  Q  E  E  E     Q  E  Q  E  E  E 
e|--1--1--1--1--1--1--|--3--3--3--3--3--3--|--1--1--1--1--1--1--|
B|–-1--1--1--1--1--1--|--0--0--0--0--0--0--|--1--1--1--1--1--1--|
G|--2--2--2--2--2--2--|--0--0--0--0--0--0--|--2--2--2--2--2--2--|
D|--3--3--3--3--3--3--|--0--0--0--0--0--0--|--3--3--3--3--3--3--|
A|--3--3--3--3--3--3--|--2--2--2--2--2--2--|--3--3--3--3--3--3--|
E|--1--1--1--1--1--1--|--3--3--3--3--3--3--|--1--1--1--1--1--1--|
 

    Q  E  q  E  E  e     Q  E  Q  E  E  E     q  E  Q  E  E  E 
e|--3--3--3--3--3--3--|--1--1--1--1--1--1--|--3--3--3--3--3--3--|
B|--0--0--0--0--0--0--|--1--1--1--1--1--1--|--0--0--0--0--0--0--|
G|--0--0--0--0--0--0--|--2--2--2--2--2--2--|--0--0--0--0--0--0--|
D|--0--0--0--0--0--0--|--3--3--3--3--3--3--|--0--0--0--0--0--0--|
A|--2--2--2--2--2--2--|--3--3--3--3--3--3--|--2--2--2--2--2--2--|
E|--3--3--3--3--3--3--|--1--1--1--1--1--1--|--3--3--3--3--3--3--|
 

   .Q    .q   Qtw                    .Q   .q    Qtw
e|--0----0----1----|---------------|--0----0----1----|---------------|
B|—-1----1----1----|---------------|--1----1----1----|---------------|
G|–-0----0----2----|---------------|–-0----0----2----|---------------|
D|--2----2----3----|---------------|--2----2----3----|---------------|
A|--3----3----3----|---------------|--3----3----3----|---------------|
E|------------1----|---------------|------------1----|---------------|


   .Q   .q   Qtw                         w
e|--0----0----1----|---------------|-----0-------|
B|—-1----1----1----|---------------|-----1-------|
G|–-0----0----2----|---------------|–----0-------|
D|--2----2----3----|---------------|-----2-------|
A|--3----3----3----|---------------|-----3-------|
E|------------1----|---------------|-------------|


************************************

| /   slide up
| \   slide down
| h   hammer-on
| p   pull-off
| ~   vibrato
| +   harmonic                  
| x   Mute note
| b   Bend
| pb  Pre-bend
| br  Bend release
| pbr Pre-bend release
| brb Bend release bend

************************************

********************
Suggest correction
Give kudos to tab author, rate the tab!
1 2 3 4 5
comments
print report bad tab
guest
You may want to rate the tab now too:
select rating
Wanna post a correction for this tab? Suggest correction