Oops, an error
Loading. Please wait.

There Goes Another Love Song tab

version 1
version 1

Whole song

Interactive

by Outlaws
463 views 1 this week
no commentswrite comment
1 2 3 4 5
3 more votes to show rating
add to favorites
×
Save as Personal and add changes to this tab that will be seen only by you. Learn more ›
×
You can save this tab as Personal to edit and correct it or add notes. All changes will be seen only by you. Learn more »
launch autoscroll
font size
0
reset
how to read this tab
guitar tuner
backing track
0:00
0:00
edit
Autoscroll
slow
fast
+/-
esc
set tempo
stop
Author
Difficulty
-------------------------------------------------------------------------------------------------------
                             There Goes Another Love Song  - The Outlaws
                                             Outlaws-1975
                           Words and Music Hughie Thomasson  and Monte Yoho
-------------------------------------------------------------------------------------------------------
Tabbed by: Duane Baldwin
E-mail: duaneandjulie@gmail.com

Tuning: Standard

Guitar I (Clean)

Intro

      wr            q  .e  s  s s  q  etq   s s  e  s s  s   s s s  s s    q  .e  s  s s  q  etq
e|---------------|-----3--------------0--|---------------0--------------|-----3--------------0--|
B|---------------|-----3-----------1--1--|------------------------------|-----3-----------1--1--|
G|---------------|-----0------0h2-----0--|-------0--2/4-----4\2p0-------|-----0------0h2-----0--|
D|---------------|-----0---3-------------|--0h2--------------------2p0--|-----0---3-------------|
A|---------------|--2-----------------3--|------------------------------|--2-----------------3--|
E|---------------|--3--------------------|------------------------------|--3--------------------|


    s s  e  e   e    s   s  s s    q  .e  s  s s  q  etq   s s  e  s s  s   s s s  s s      
e|-------------------------------|-----3--------------0--|---------------0--------------|
B|-------------------------------|-----3-----------1--1--|------------------------------|
G|-------0--2b--2b--2br--0-------|-----0------0h2-----0--|-------0--2/4-----4\2p0-------|
D|--0h2---------------------2p0--|-----0---3-------------|--0h2--------------------2p0--|
A|-------------------------------|--2-----------------3--|------------------------------|
E|-------------------------------|--3--------------------|------------------------------|


   q  .e  s  s s  q  etq       w
e|-----3--------------0--|-----3-------|
B|-----3-----------1--1--|-----1-------|
G|-----0------0h2-----0--|-----0-------|
D|-----0---3-------------|-----2-------|
A|--2-----------------3--|-----3-------|
E|--3--------------------|-------------|

1st Verse

    q   e   q   e   q     q   e   q   e   q     q   e   q   e   q     q   e   q   e   q
e|--3---3---3---3---3--|--1---1---1---1---1--|--0---0---0---0---0--|--1---1---1---1---1--|
B|--3---3---3---3---3--|--1---1---1---1---1--|--1---1---1---1---1--|--1---1---1---1---1--|
G|--0---0---0---0---0--|--2---2---2---2---2--|--0---0---0---0---0--|--2---2---2---2---2--|
D|--0---0---0---0---0--|--3---3---3---3---3--|--2---2---2---2---2--|--3---3---3---3---3--|
A|--2------------------|--3------------------|--3------------------|--3------------------|
E|--3------------------|---------------------|---------------------|---------------------|


    q   e   q   e   q     q   e   q   e   q     q   e   q   e   q     q   e   q   e   q
e|--3---3---3---3---3--|--1---1---1---1---1--|--0---0---0---0---0--|--1---1---1---1---1--|
B|--3---3---3---3---3--|--1---1---1---1---1--|--1---1---1---1---1--|--1---1---1---1---1--|
G|--0---0---0---0---0--|--2---2---2---2---2--|--0---0---0---0---0--|--2---2---2---2---2--|
D|--0---0---0---0---0--|--3---3---3---3---3--|--2---2---2---2---2--|--3---3---3---3---3--|
A|--2------------------|--3------------------|--3------------------|--3------------------|
E|--3------------------|---------------------|---------------------|---------------------|


1st solo

    q  q   e  s s  e  ete   .q s s  e  s s  s s    q   q   e  s s    eth     e   e   q      
e|-----3-----------------|--3--------------------|-----3--------------0--|--------------|
B|-----3-----------1-----|--1--------------------|-----3-----------1--1--|---1----------|
G|-----0------0h2--------|--0-------0--2p0-------|-----0------0h2-----0--|-------0------|
D|-----0---3-------------|--2--0h2----------2p0--|-----0---3----------2--|-----------2--|
A|--2-----------------3--|-----------------------|--2-----------------3--|--------------|
E|--3--------------------|-----------------------|--2-----------------3--|--------------|


2nd Verse


    q   e   q   e   q     q   e   q   e   q     q   e   q   e   q     q   e   q   e   q
e|--3---3---3---3---3--|--1---1---1---1---1--|--0---0---0---0---0--|--1---1---1---1---1--|
B|--3---3---3---3---3--|--1---1---1---1---1--|--1---1---1---1---1--|--1---1---1---1---1--|
G|--0---0---0---0---0--|--2---2---2---2---2--|--0---0---0---0---0--|--2---2---2---2---2--|
D|--0---0---0---0---0--|--3---3---3---3---3--|--2---2---2---2---2--|--3---3---3---3---3--|
A|--2------------------|--3------------------|--3------------------|--3------------------|
E|--3------------------|---------------------|---------------------|---------------------|


    q   e   q   e   q     q   e   q   e   q     q   e   q   e   q     q   e   q   e  s s  e
e|--3---3---3---3---3--|--1---1---1---1---1--|--0---0---0---0---0--|--1---1---1---1----------|
B|--3---3---3---3---3--|--1---1---1---1---1--|--1---1---1---1---1--|--1---1---1---1----------|
G|--0---0---0---0---0--|--2---2---2---2---2--|--0---0---0---0---0--|--2---2---2---2-------0--|
D|--0---0---0---0---0--|--3---3---3---3---3--|--2---2---2---2---2--|--3---3---3---3--0h2-----|
A|--2------------------|--3------------------|--3------------------|--3----------------------|
E|--3------------------|---------------------|---------------------|-------------------------|

1st Chorus

    q   q   e   e  er  ete   e  er  q   e   s s  e     q   q   s    s  s  .e   ete
e|--3---3---1---1------0--|--0------0---0-----------|--3---3---1---1---1---1---0--|
B|--0---0---1---1------1--|--1------1---1-----------|--0---0---1---1---1---1---1--|
G|--0---0---2---2------0--|--0------0---0--------0--|--0---0---2---2---2---2---0--|
D|--0---0---3---3------2--|--2------2---2---0h2-----|--0---0---3---3---3---3---2--|
A|--2---2--------------3--|--3------3---3-----------|--2---2-------------------3--|
E|--3---3-----------------|-------------------------|--3---3----------------------|


    e  er  e   e   s s  s  s  s  s    q   q   s   s   q  ete    e  er  q   e   s s  e 
e|--0------0---0-------------------|--3---3---1---1---1---0--|--0------0---0-----------|
B|--1------1---1-------------------|--0---0---1---1---1---1--|--1------1---1-----------|
G|--0------0---0--------0--0-------|--0---0---2---2---2---0--|--0------0---0--------0--|
D|--2------2---2---0h2--------2p0--|--0---0---3---3---3---2--|--2------2---2---0h2-----|
A|--3------3---3-------------------|--2---2---------------3--|--3------3---3-----------|
E|---------------------------------|--3---3------------------|-------------------------|


    q  .e   s   s   q  ete    e  er  e  .q    e 
e|--3---3---1---1---1---0--|--0------0---0--------|
B|--0---0---1---1---1---1--|--1------1---1--------|
G|--0---0---2---2---2---0--|--0------0---0----2---|
D|--0---0---3---3---3---2--|--2------2---2--------|
A|--2---2---------------3--|--3------3---3--------|
E|--3---3------------------|----------------------|


Bridge


     .q   s .e  q   ete    q    e   .q     e    .q   s .e    q   ete    q    e   .q    e    
e|----------------------|---------------------|----------------------|---------------------|
B|---3----------7-------|--10---10---10-------|--7-----------7-------|--10---10---10-------|
G|---2----7/9-------12--|--11---11---11-------|--7----7/9--------12--|--11---11---11-------|
D|------------------12--|--12---12---12-------|--7---------------12--|--12---12---12-------|
A|----------------------|------------------5--|----------------------|------------------5--|
E|----------------------|---------------------|----------------------|---------------------|

    .q   s .e  q   ete    q     e    h      s  s  .hte       hr   s s    e    s s     e
e|---------------------|-----------------|--8-------------|------------------------------|
B|--7----------7-------|--10---10---10---|-----8----------|------------------------------|
G|--7----7/9-------12--|--11---11---11---|--------7b------|--------------0---------------|
D|--7--------------12--|--12---12---12---|----------------|-------0h2-----------------0--|
A|---------------------|-----------------|----------------|-------------------0h2--------|
E|---------------------|-----------------|----------------|------------------------------|


2nd Solo


   q  .e  s  s s  q  etq    q     s s  e   s s  s s    q  .e  s  s s  q  etq
e|-----3-----------------|--3-----------------------|-----3-----------------|
B|-----3-----------1-----|--1-----------------------|-----3-----------1-----|
G|-----0------0h2--------|--0----------0--2p0-------|-----0------0h2--------|
D|-----0---3----------2--|--2-----0h2----------2p0--|-----0---3----------2--|
A|--2-----------------3--|--------------------------|--2-----------------3--|
E|--3--------------------|--------------------------|--3--------------------|


    q    s s  e  s s   s s   q  .e  s  s s  q  etq    s s  e  s s  s s       
e|--3----------------------|-----3-----------------|--------------------|
B|--1----------------------|-----3-----------1-----|--------------------|
G|--0---------0--2p0-------|-----0------0h2--------|-------0--2p0-------|
D|--2----0h2----------2p0--|-----0---3----------2--|--0h2----------2p0--|
A|-------------------------|--2-----------------3--|--------------------|
E|-------------------------|--3--------------------|--------------------|


   q  .e  s  s s  q  etq     q   s s  e    s s   e  
e|-----3-----------------|---3---------------------|
B|-----3-----------1-----|---1---------------------|
G|-----0------0h2--------|---0--------0------------|
D|-----0---3----------2--|---2---0h2------------0--|
A|--2-----------------3--|-----------------0h2-----|
E|--3--------------------|-------------------------|


3rd Verse


    q   e   q   e   q     q   e   q   e   q     q   e   q   e   q     q   e   q   e   q
e|--3---3---3---3---3--|--1---1---1---1---1--|--0---0---0---0---0--|--1---1---1---1---1--|
B|--3---3---3---3---3--|--1---1---1---1---1--|--1---1---1---1---1--|--1---1---1---1---1--|
G|--0---0---0---0---0--|--2---2---2---2---2--|--0---0---0---0---0--|--2---2---2---2---2--|
D|--0---0---0---0---0--|--3---3---3---3---3--|--2---2---2---2---2--|--3---3---3---3---3--|
A|--2------------------|--3------------------|--3------------------|--3------------------|
E|--3------------------|---------------------|---------------------|---------------------|


    q   e   q   e   q     q   e   q   e   q     q   e   q   e   q     q   e   q   e  s s  e
e|--3---3---3---3---3--|--1---1---1---1---1--|--0---0---0---0---0--|--1---1---1---1----------|
B|--3---3---3---3---3--|--1---1---1---1---1--|--1---1---1---1---1--|--1---1---1---1----------|
G|--0---0---0---0---0--|--2---2---2---2---2--|--0---0---0---0---0--|--2---2---2---2-------0--|
D|--0---0---0---0---0--|--3---3---3---3---3--|--2---2---2---2---2--|--3---3---3---3--0h2-----|
A|--2------------------|--3------------------|--3------------------|--3----------------------|
E|--3------------------|---------------------|---------------------|-------------------------|


2nd Chorus


    q   q   e   e  er  ete   e  er  q   e   s s  e     q   q   s    s  s  .e   ete
e|--3---3---1---1------0--|--0------0---0-----------|--3---3---1---1---1---1---0--|
B|--0---0---1---1------1--|--1------1---1-----------|--0---0---1---1---1---1---1--|
G|--0---0---2---2------0--|--0------0---0--------0--|--0---0---2---2---2---2---0--|
D|--0---0---3---3------2--|--2------2---2---0h2-----|--0---0---3---3---3---3---2--|
A|--2---2--------------3--|--3------3---3-----------|--2---2-------------------3--|
E|--3---3-----------------|-------------------------|--3---3----------------------|


    e  er  e   e   s s  s  s  s  s    q   q   s   s   q  ete    e  er  q   e   s s  e 
e|--0------0---0-------------------|--3---3---1---1---1---0--|--0------0---0-----------|
B|--1------1---1-------------------|--0---0---1---1---1---1--|--1------1---1-----------|
G|--0------0---0--------0--0-------|--0---0---2---2---2---0--|--0------0---0--------0--|
D|--2------2---2---0h2--------2p0--|--0---0---3---3---3---2--|--2------2---2---0h2-----|
A|--3------3---3-------------------|--2---2---------------3--|--3------3---3-----------|
E|---------------------------------|--3---3------------------|-------------------------|

 End of Chorus- *beginning of third solo w/ slight over driven tone

    q  .e   s   s   q  ete    e  er  q   *e   e    e 
e|--3---3---1---1---1---0--|--0------0---*3-------------|
B|--0---0---1---1---1---1--|--1------1--------3---------|
G|--0---0---2---2---2---0--|--0------0------------2br---|
D|--0---0---3---3---3---2--|--2------2------------------|
A|--2---2---------------3--|--3------3------------------|
E|--3---3------------------|----------------------------|


    q  q   q   e  ete   e   s s   e  e    e   s s   e     e   e   s s   s  s  s  s   e   s s  s  s    
e|-------------------|---------------------------------|------0-------------------------------------|
B|-------------------|---------------------------------|----------3p0-------------------------------|
G|--0--0--2br--0--0--|--0---------0--2b---2b--2p0------|--2b------------2--0--2--0--2b--2p0---------|
D|-------------------|------0h2---------------------2--|--------------------------------------2--0--|
A|-------------------|---------------------------------|--------------------------------------------|
E|-------------------|---------------------------------|--------------------------------------------|


    e    e   s s    e   e   s s    e   e     s s   s s   e   e   s s   s s   s s   s s
e|-------0--------------0--------------0--|---------------------------------------------|
B|-----------3p0------------3p0-----------|--3p0----------------------------------------|
G|--2b-------------2b-------------2b------|--------2p0---2---2b--2p0---------2p0--------|
D|----------------------------------------|----------------------------2p0---------2p0--|
A|----------------------------------------|---------------------------------------------|
E|----------------------------------------|---------------------------------------------|


     e   e   s s   s s   s   s s  s    s   s e     s  s  s  s  s  s  s  s  s  s  s  s  s  s  s  s
e|-------0--------------------------------------|--------------------------------------------------|
B|-----------3p0--------------------------------|--------------------------------------------------|
G|--2b-------------2p0---0----------------------|--------------------------------0-----2--0-----0--|
D|---------------------------2p0-------0--------|--------------------------0--2-----2--------2-----|
A|---------------------------------2-------2p0--|-----------0--2--0--2--3--------------------------|
E|----------------------------------------------|--3--2--3-----------------------------------------|


    e   s     s  s s    s  s  s  s  s  s  s  s  e    h   s  s  s   s    eth    er   e   e   etq 
e|-------------------------------------------------|-----------------------|---------------------|
B|--3---3------------------------------------------|-----------------------|---------------------|
G|--2b--2br---0--2p0----------0--2--0-----0--------|-----------------------|---------------------|
D|----------------------0--2-----------0-----2--0--|--------------------5--|------------------5--|
A|-------------------------------------------------|------------5---7------|--------5----7-------|
E|-------------------------------------------------|--3---5/7--------------|---------------------|


    e   e   s s   e    s s   etq  .q   s  s  e   ete    q     e   e   q     ete    q     q      q
e|------------------------------|-------------------|------------8-------------|--10b---10pbr---8--|
B|----------------7-------------|----------------8--|--10br---8------10br---8--|-------------------|
G|--7---5---7/9--------9\7------|------5/7---9------|--------------------------|-------------------|
D|---------------------------5--|--5----------------|--------------------------|-------------------|
A|------------------------------|-------------------|--------------------------|-------------------|
E|------------------------------|-------------------|--------------------------|-------------------|


     q     e   e   e    e   e   s   s      s   e   s    s   e   s    s   e   s   s s   e
e|---------------------10--------------|--10-----------10-----------10--------------------|
B|--10br---8-------8--------8---8---8--|-------8---8--------8---8--------8---8------------|
G|-------------9-----------------------|-----------------------------------------------0--|
D|-------------------------------------|-----------------------------------------0h2------|
A|-------------------------------------|--------------------------------------------------|
E|-------------------------------------|--------------------------------------------------|


3rd Chorus

    q   q   e   e  er  ete   e  er  q   e   s s  e     q   q   s    s  s  .e   ete
e|--3---3---1---1------0--|--0------0---0-----------|--3---3---1---1---1---1---0--|
B|--0---0---1---1------1--|--1------1---1-----------|--0---0---1---1---1---1---1--|
G|--0---0---2---2------0--|--0------0---0--------0--|--0---0---2---2---2---2---0--|
D|--0---0---3---3------2--|--2------2---2---0h2-----|--0---0---3---3---3---3---2--|
A|--2---2--------------3--|--3------3---3-----------|--2---2-------------------3--|
E|--3---3-----------------|-------------------------|--3---3----------------------|


    e  er  e   e   s s  s  s  s  s    q   q   s   s   q  ete    e  er  q   e   s s  e 
e|--0------0---0-------------------|--3---3---1---1---1---0--|--0------0---0-----------|
B|--1------1---1-------------------|--0---0---1---1---1---1--|--1------1---1-----------|
G|--0------0---0--------0--0-------|--0---0---2---2---2---0--|--0------0---0--------0--|
D|--2------2---2---0h2--------2p0--|--0---0---3---3---3---2--|--2------2---2---0h2-----|
A|--3------3---3-------------------|--2---2---------------3--|--3------3---3-----------|
E|---------------------------------|--3---3------------------|-------------------------|


    q  .e   s   s   s   q  ete    e  er  e   e   s s  s  s  s  s    
e|--3---3---1---1---1---1---0--|--0------0---0-------------------|
B|--0---0---1---1---1---1---1--|--1------1---1-------------------|
G|--0---0---2---2---2---2---0--|--0------0---0--------0--0-------|
D|--0---0---3---3---3---3---2--|--2------2---2---0h2--------2p0--|
A|--2---2-------------------3--|--3------3---3-------------------|
E|--3---3----------------------|---------------------------------|

Chorus reprise/Outro

    q   q   e   e  er  ete   e  er  q   e   s s  e     q   q   s    s  s  .e   ete
e|--3---3---1---1------0--|--0------0---0-----------|--3---3---1---1---1---1---0--|
B|--0---0---1---1------1--|--1------1---1-----------|--0---0---1---1---1---1---1--|
G|--0---0---2---2------0--|--0------0---0--------0--|--0---0---2---2---2---2---0--|
D|--0---0---3---3------2--|--2------2---2---0h2-----|--0---0---3---3---3---3---2--|
A|--2---2--------------3--|--3------3---3-----------|--2---2-------------------3--|
E|--3---3-----------------|-------------------------|--3---3----------------------|


    e  er  e   e   s s  s  s  s  s    q   q   s   s   q  ete    e  er  q   e   s s  e 
e|--0------0---0-------------------|--3---3---1---1---1---0--|--0------0---0-----------|
B|--1------1---1-------------------|--0---0---1---1---1---1--|--1------1---1-----------|
G|--0------0---0--------0--0-------|--0---0---2---2---2---0--|--0------0---0--------0--|
D|--2------2---2---0h2--------2p0--|--0---0---3---3---3---2--|--2------2---2---0h2-----|
A|--3------3---3-------------------|--2---2---------------3--|--3------3---3-----------|
E|---------------------------------|--3---3------------------|-------------------------|


    q  .e   s   s   s   q  ete    e  er  q   e   e   e        w
e|--3---3---1---1---1---1---0--|--0------0---0---0---0--|-----2------|
B|--0---0---1---1---1---1---1--|--1------1---1---1---1--|-----3------|
G|--0---0---2---2---2---2---0--|--0------0---0---0---0--|-----2------|
D|--0---0---3---3---3---3---2--|--2------2---2---2---2--|-----0------|
A|--2---2-------------------3--|--3------3---3---3---3--|------------|
E|--3---3----------------------|------------------------|------------|


--------------------------------------------------------------------------------------------------------------------------------------------------------------------------------------------------------------


Guitar II (clean Tone)

Intro

      wr            q  .e   s   s s  q  eth     q    q       q  .e   s   s s  q  eth
e|---------------|--3---3---1-----------0--|--------------|--3---3---1-----------0--|
B|---------------|--3---3---1--------1--1--|----1---------|--3---3---1--------1--1--|
G|---------------|--0---0---2---0h2-----0--|---------0----|--0---0---2---0h2-----0--|
D|---------------|--0---0---3-----------2--|--------------|--0---0---3-----------2--|
A|---------------|--2---2---3-----------3--|--------------|--2---2---3-----------3--|
E|---------------|--3---3------------------|--------------|--3---3------------------|


      q     q         q  .e   s   s s q  eth      h    h       q  .e   s   s s q  etw
e|-----------------|--3---3---1-----------0--|--------------|--3---3---1-----------0--|
B|----1-----0------|--3---3---1--------1--1--|----1----1----|--3---3---1--------1--1--|
G|----0-----2------|--0---0---2---0h2-----0--|----0----0----|--0---0---2---0h2-----0--|
D|-----------------|--0---0---3-----------2--|--------------|--0---0---3-----------2--|
A|-----------------|--2---2---3-----------3--|--------------|--2---2---3-----------3--|
E|-----------------|--3---3------------------|--------------|--3---3------------------|


1st Verse (Let all notes ring)

   .q    e   e   e   q     q   e   e   e   e   e    .q   e   e   e   e     q   e   e   e   e   e
e|--3--------3----------|--------------1----------|---------------------|--------------1----------|
B|--3------------3------|------------------1------|----------1----------|------------------1------|
G|--0----0-----------0--|----------2-----------2--|--------------0------|----------2-----------2--|
D|--0-------------------|------3------------------|------0-----------2--|------3------------------|
A|--2-------------------|--3----------------------|--3------------------|--3----------------------|
E|--3-------------------|-------------------------|---------------------|-------------------------|

                                                                  * Beginning of 1st solo(over driven )
    h    e  .q       h   e   e   q       h    e  .q      q   e   q   er    *e     e  
e|--3-------------|--1----------------|--0------------|--1---1---1-------------------|
B|--3--------0----|--1---1------------|--1--------1---|--1---1---1--------*10br---8--|
G|--0----0--------|--2-------2--------|--0----0-------|--2---2---2-------------------|
D|--0-------------|--3-----------3----|--2------------|--3---3---3-------------------|
A|--2-------------|--3----------------|--3------------|--3---------------------------|
E|--3-------------|-------------------|---------------|------------------------------|

1st Solo

     e     .q     e     e    e   ethte     s   s   e   e       .q    h     e     h   e   e   s .e
e|----------------------------------|----------------------|------------------|-------------------|
B|--10b---10b---10pbr---8---10------|--------------8---10--|--11b---10br---8--|--8----------------|
G|-------------------------------9--|------7---9-----------|------------------|------9---7--------|
D|----------------------------------|----------------------|------------------|--------------9p7--|
A|----------------------------------|----------------------|------------------|-------------------|
E|----------------------------------|----------------------|------------------|-------------------|


2nd Verse (return to clean tone after whole G over drive on fills)

      w        e   e   e   q   e   q     e   e   e   q   e   q    er    e     s    q   sr  e  s   .ete
e|----------|--------------1----------|-------------------------|------------10-----------------------|
B|----------|------------------1------|--------------1----------|------10b--------10b----------3------|
G|----------|----------2-----------2--|----------0-------0------|--------------------------2-----2br--|
D|----5-----|------3------------------|------2---------------2--|-------------------------------------|
A|----------|--3----------------------|--3----------------------|-------------------------------------|
E|----------|-------------------------|-------------------------|-------------------------------------|


     h    .qr      e   e   e   e   h     e   e   e   e   h     e   s s   e   e   e   e   s s   e
e|--------------|---------------------|---------------------|----------------1---1---1-------------|
B|--------------|----------1----------|----------1----------|------------1---1---1---1-------------|
G|---0----------|--------------2------|--------------0------|------0h2-------2---2---2---------0---|
D|--------------|------3-----------3--|------2-----------2--|----------------3---3---3---0h2-------|
A|--------------|--3------------------|--3------------------|--3-------------3---3---3-------------|
E|--------------|---------------------|---------------------|--------------------------------------|


1st Chorus


    q   q   s   s   s   s  er ete    e  er  q   e   s s  e     q   q   s   s   s   s  er  ete
e|--3---3---1---1---1---1------0--|--0------0---0-----------|--3---3---1---1---1---1-------0--|
B|--0---0---1---1---1---1------1--|--1------1---1-----------|--0---0---1---1---1---1-------1--|
G|--0---0---2---2---2---2------0--|--0------0---0--------0--|--0---0---2---2---2---2-------0--|
D|--0---0---3---3---3---3------2--|--2------2---2---0h2-----|--0---0---3---3---3---3-------2--|
A|--2---2----------------------3--|--3------3---3-----------|--2---2-----------------------3--|
E|--3---3-------------------------|-------------------------|--3---3--------------------------|


    e  er  q    s s  s  s  s s     q   q   s   s   s   s  er  ete    e  er  q   e   s s  e 
e|--0------0--------------------|--3---3---1---1---1---1-------0--|--0------0---0-----------|
B|--1------1--------------------|--0---0---1---1---1---1-------1--|--1------1---1-----------|
G|--0------0---------0--0-------|--0---0---2---2---2---2-------0--|--0------0---0--------0--|
D|--2------2----0h2--------2p0--|--0---0---3---3---3---3-------2--|--2------2---2---0h2-----|
A|--3------3--------------------|--2---2-----------------------3--|--3------3---3-----------|
E|------------------------------|--3---3--------------------------|-------------------------|


   q  .e   s   s   q    s  er  ete    e  er  e  .q     
e|--3---3---1---1---1---1-------0--|--0------0---0----|
B|--0---0---1---1---1---1-------1--|--1------1---1----|
G|--0---0---2---2---2---2-------0--|--0------0---0----|
D|--0---0---3---3---3---3-------2--|--2------2---2----|
A|--2---2-----------------------3--|--3------3---3----|
E|--3---3--------------------------|------------------|


Bridge (overdrive)


   .q   s s   s   s   q   ete    q   e   h      .q  s   s   e   q   ete     q    h     er
e|---------------------------|---------------|-------------------------|------------------|
B|---------------------------|---------------|------------------7---8--|----10---10br-----|
G|------------------------9--|-------7---7---|--7---7---7---9----------|------------------|
D|--0-----------------7------|---9-----------|-------------------------|------------------|
A|------7/9---9---9----------|---------------|-------------------------|------------------|
E|---------------------------|---------------|-------------------------|------------------|


    .q    s   s    e     q   ete    q     e    q    e    e       .h     qr
e|----------------------10---12--|--14---14---14---12---14--|--14hbrb---------|
B|--10---10---10---12------------|--------------------------|-----------------|
G|-------------------------------|--------------------------|-----------------|
D|-------------------------------|--------------------------|-----------------|
A|-------------------------------|--------------------------|-----------------|
E|-------------------------------|--------------------------|-----------------|


2nd Solo

  .hr  e     e      .q   s    s   e     e    s  s    e    s   s   e    .q    s   s    s    s    s   s
e|---------------|--------------------------------------|---------------------------------------------|
B|---------------|----------------12---13---13p12-------|-----------------------------12---13---12----|
G|----14br---12--|-12---12---14---------------------14--|-14p12--------12---12---14-----------------14|
D|---------------|--------------------------------------|---------14----------------------------------|
A|---------------|--------------------------------------|---------------------------------------------|
E|---------------|--------------------------------------|---------------------------------------------|


     s    s    s   s    e    e    .q         ete      e    e    e    s  s    e     s  s    e
e|-------------------------------------------------|--------------------------------------15--|
B|--12---------------------------------------------|-------------------------15---15/17-------|
G|-------12---14--------12---14---14hpbr---14hpbr--|--12---12---12---14/16--------------------|
D|-----------------12------------------------------|------------------------------------------|
A|-------------------------------------------------|------------------------------------------|
E|-------------------------------------------------|------------------------------------------|

   
    q    .q    s  s    q         h   s .e    e     e
e|--15---15---17p15---17hbr--|--15---17p15------------|
B|---------------------------|---------------17---15--|
G|---------------------------|------------------------|
D|---------------------------|------------------------|
A|---------------------------|------------------------|
E|---------------------------|------------------------|

     s  s   e    s    s    s    s    s    s    s    s    e     s    s
e|---------------------------------------------------------------------|
B|-------------------------12---13---12---15---12---13---12---12-------|
G|--16\14---12---12---14-------------------------------------------14--|
D|---------------------------------------------------------------------|
A|---------------------------------------------------------------------|
E|---------------------------------------------------------------------|


    s    s     s   s    e    s    s    e    e     s  s   s    s
e|----------------------------------------------------------------|
B|----------------------------------------------------------------|
G|--12--------12---14---12---12-----------------------------------|
D|-------14-----------------------14---12---14--------------------|
A|-----------------------------------------------14\12---10-------|
E|------------------------------------------------------------12--|


3rd Verse (return to clean tone after whole G over drive on fills)

      w        e   e   e   q   e   q     e   e   e   q   e   q    e   e   q     e    e   s s   e
e|----------|--------------1----------|-------------------------|---------------------------------|
B|----------|------------------1------|--------------1----------|---------------------------------|
G|----------|----------2-----------2--|----------0-------0------|----------2---2br---0---2p0------|
D|----------|------3------------------|------2---------------2--|------3-----------------------2--|
A|----10----|--3----------------------|--3----------------------|--3------------------------------|
E|----------|-------------------------|-------------------------|---------------------------------|


     h    .qr      e   e   e   e   h     e   e   e   e   h     e   s s   e   e   e   e   s s   e
e|--------------|---------------------|---------------------|----------------1---1---1-------------|
B|--------------|----------1----------|----------1----------|------------1---1---1---1-------------|
G|---0----------|--------------2------|--------------0------|------0h2-------2---2---2---------0---|
D|--------------|------3-----------3--|------2-----------2--|----------------3---3---3---0h2-------|
A|--------------|--3------------------|--3------------------|--3-------------3---3---3-------------|
E|--------------|---------------------|---------------------|--------------------------------------|


2nd Chorus


    q   q   s   s   s   s  er ete    e  er  q   e   s s  e     q   q   s   s   s   s  er  ete
e|--3---3---1---1---1---1------0--|--0------0---0-----------|--3---3---1---1---1---1-------0--|
B|--0---0---1---1---1---1------1--|--1------1---1-----------|--0---0---1---1---1---1-------1--|
G|--0---0---2---2---2---2------0--|--0------0---0--------0--|--0---0---2---2---2---2-------0--|
D|--0---0---3---3---3---3------2--|--2------2---2---0h2-----|--0---0---3---3---3---3-------2--|
A|--2---2----------------------3--|--3------3---3-----------|--2---2-----------------------3--|
E|--3---3-------------------------|-------------------------|--3---3--------------------------|


    e  er  q    s s  s  s  s s     q   q   s   s   s   s  er  ete    e  er  q   e   s s  e 
e|--0------0--------------------|--3---3---1---1---1---1-------0--|--0------0---0-----------|
B|--1------1--------------------|--0---0---1---1---1---1-------1--|--1------1---1-----------|
G|--0------0---------0--0-------|--0---0---2---2---2---2-------0--|--0------0---0--------0--|
D|--2------2----0h2--------2p0--|--0---0---3---3---3---3-------2--|--2------2---2---0h2-----|
A|--3------3--------------------|--2---2-----------------------3--|--3------3---3-----------|
E|------------------------------|--3---3--------------------------|-------------------------|


   q  .e   s   s   q    s  er  ete    e  er  e  .q     
e|--3---3---1---1---1---1-------0--|--0------0---0----|
B|--0---0---1---1---1---1-------1--|--1------1---1----|
G|--0---0---2---2---2---2-------0--|--0------0---0----|
D|--0---0---3---3---3---3-------2--|--2------2---2----|
A|--2---2-----------------------3--|--3------3---3----|
E|--3---3--------------------------|------------------|

3rd Solo


    q   q   e   q  ete    e  er  q   e   q     q   q   e   q  ete    e  er  q   e   q  
e|--3---3---1---1---0--|--0------0---0---1--|--3---3---1---1---0--|--0------0---0---1--|
B|--3---3---1---1---1--|--1------1---1---1--|--3---3---1---1---1--|--1------1---1---1--|
G|--0---0---2---2---0--|--0------0---0---0--|--0---0---2---2---0--|--0------0---0---0--|
D|--0---0---3---3---2--|--2------2---2---2--|--0---0---3---3---2--|--2------2---2---2--|
A|--2---2---3---3---3--|--3------3---3---3--|--2---2---3---3---3--|--3------3---3---3--|
E|--3---3--------------|--------------------|--3---3--------------|--------------------|


     q   q   e   q  ete    e  er  q   e   q     q   q   e   q  ete    e  er  q   e   q  
e|--3---3---1---1---0--|--0------0---0---1--|--3---3---1---1---0--|--0------0---0---1--|
B|--3---3---1---1---1--|--1------1---1---1--|--3---3---1---1---1--|--1------1---1---1--|
G|--0---0---2---2---0--|--0------0---0---0--|--0---0---2---2---0--|--0------0---0---0--|
D|--0---0---3---3---2--|--2------2---2---2--|--0---0---3---3---2--|--2------2---2---2--|
A|--2---2---3---3---3--|--3------3---3---3--|--2---2---3---3---3--|--3------3---3---3--|
E|--3---3--------------|--------------------|--3---3--------------|--------------------|


    q   q   e   q  ete    e  er  q   e   q     q   q   e   q  ete    e  er  q   e   q  
e|--3---3---1---1---0--|--0------0---0---1--|--3---3---1---1---0--|--0------0---0---1--|
B|--3---3---1---1---1--|--1------1---1---1--|--3---3---1---1---1--|--1------1---1---1--|
G|--0---0---2---2---0--|--0------0---0---0--|--0---0---2---2---0--|--0------0---0---0--|
D|--0---0---3---3---2--|--2------2---2---2--|--0---0---3---3---2--|--2------2---2---2--|
A|--2---2---3---3---3--|--3------3---3---3--|--2---2---3---3---3--|--3------3---3---3--|
E|--3---3--------------|--------------------|--3---3--------------|--------------------|


    q   q   e   q  ete    e  er  q   e   q     q   q   e   q  ete    e  er  q   e   q  
e|--3---3---1---1---0--|--0------0---0---1--|--3---3---1---1---0--|--0------0---0---1--|
B|--3---3---1---1---1--|--1------1---1---1--|--3---3---1---1---1--|--1------1---1---1--|
G|--0---0---2---2---0--|--0------0---0---0--|--0---0---2---2---0--|--0------0---0---0--|
D|--0---0---3---3---2--|--2------2---2---2--|--0---0---3---3---2--|--2------2---2---2--|
A|--2---2---3---3---3--|--3------3---3---3--|--2---2---3---3---3--|--3------3---3---3--|
E|--3---3--------------|--------------------|--3---3--------------|--------------------|


3rd Chorus


    q   q   s   s   s   s  er ete    e  er  q   e   s s  e     q   q   s   s   s   s  er  ete
e|--3---3---1---1---1---1------0--|--0------0---0-----------|--3---3---1---1---1---1-------0--|
B|--0---0---1---1---1---1------1--|--1------1---1-----------|--0---0---1---1---1---1-------1--|
G|--0---0---2---2---2---2------0--|--0------0---0--------0--|--0---0---2---2---2---2-------0--|
D|--0---0---3---3---3---3------2--|--2------2---2---0h2-----|--0---0---3---3---3---3-------2--|
A|--2---2----------------------3--|--3------3---3-----------|--2---2-----------------------3--|
E|--3---3-------------------------|-------------------------|--3---3--------------------------|


    e  er  q    s s  s  s  s s     q   q   s   s   s   s  er  ete    e  er  q   e   s s  e 
e|--0------0--------------------|--3---3---1---1---1---1-------0--|--0------0---0-----------|
B|--1------1--------------------|--0---0---1---1---1---1-------1--|--1------1---1-----------|
G|--0------0---------0--0-------|--0---0---2---2---2---2-------0--|--0------0---0--------0--|
D|--2------2----0h2--------2p0--|--0---0---3---3---3---3-------2--|--2------2---2---0h2-----|
A|--3------3--------------------|--2---2-----------------------3--|--3------3---3-----------|
E|------------------------------|--3---3--------------------------|-------------------------|


   q  .e   s   s   q    s  er  ete    e  er  e  .q     
e|--3---3---1---1---1---1-------0--|--0------0---0----|
B|--0---0---1---1---1---1-------1--|--1------1---1----|
G|--0---0---2---2---2---2-------0--|--0------0---0----|
D|--0---0---3---3---3---3-------2--|--2------2---2----|
A|--2---2-----------------------3--|--3------3---3----|
E|--3---3--------------------------|------------------|


Chorus reprise/outro


    q   q   s   s   s   s  er ete    e  er  q   e   s s  e     q   q   s   s   s   s  er  ete
e|--3---3---1---1---1---1------0--|--0------0---0-----------|--3---3---1---1---1---1-------0--|
B|--0---0---1---1---1---1------1--|--1------1---1-----------|--0---0---1---1---1---1-------1--|
G|--0---0---2---2---2---2------0--|--0------0---0--------0--|--0---0---2---2---2---2-------0--|
D|--0---0---3---3---3---3------2--|--2------2---2---0h2-----|--0---0---3---3---3---3-------2--|
A|--2---2----------------------3--|--3------3---3-----------|--2---2-----------------------3--|
E|--3---3-------------------------|-------------------------|--3---3--------------------------|


    e  er  q    s s  s  s  s s     q   q   s   s   s   s  er  ete    e  er  q   e   s s  e 
e|--0------0--------------------|--3---3---1---1---1---1-------0--|--0------0---0-----------|
B|--1------1--------------------|--0---0---1---1---1---1-------1--|--1------1---1-----------|
G|--0------0---------0--0-------|--0---0---2---2---2---2-------0--|--0------0---0--------0--|
D|--2------2----0h2--------2p0--|--0---0---3---3---3---3-------2--|--2------2---2---0h2-----|
A|--3------3--------------------|--2---2-----------------------3--|--3------3---3-----------|
E|------------------------------|--3---3--------------------------|-------------------------|


   q  .e   s   s   q    s  er  ete    e  er  q   e   e   e         w
e|--3---3---1---1---1---1-------0--|--0------0---0---0---0---|-----2-----|
B|--0---0---1---1---1---1-------1--|--1------1---1---1---1---|-----3-----|
G|--0---0---2---2---2---2-------0--|--0------0---0---0---0---|-----2-----|
D|--0---0---3---3---3---3-------2--|--2------2---2---2---2---|-----0-----|
A|--2---2-----------------------3--|--3------3---3---3---3---|-----------|
E|--3---3--------------------------|-------------------------|-----------|


--------------------------------------------------------------------------------------------------------------------------------------------------------------------------------------------------------------


Guitar III (Clean)

Intro

     wr        q   e   s   s   e   q  etq    q      h       q   e   s   s   e   q  etq
e|----------|--3---3---1---1---1---1---0--|--0------0----|--3---3---1---1---1---1---0--|
B|----------|--0---0---1---1---1---1---1--|--1------1----|--0---0---1---1---1---1---1--|
G|----------|--0---0---2---2---2---2---0--|--0------0----|--0---0---2---2---2---2---0--|
D|----------|--0---0---3---3---3---3---2--|--2------2----|--0---0---3---3---3---3---2--|
A|----------|--2---2---3---3---3---3---3--|--3------3----|--2---2---3---3---3---3---3--|
E|----------|--3---3---1---1---1---1------|--------------|--3---3---1---1---1---1------|

    q      h       q   e   s   s   e   q  etq    q      h       q   e   s   s   e   q   e      w
e|--0------0----|--3---3---1---1---1---1---0--|--0------0----|--3---3---1---1---1---1---0--|---0----| 
B|--1------1----|--0---0---1---1---1---1---1--|--1------1----|--0---0---1---1---1---1---1--|---1----|
G|--0------0----|--0---0---2---2---2---2---0--|--0------0----|--0---0---2---2---2---2---0--|---0----|
D|--2------2----|--0---0---3---3---3---3---2--|--2------2----|--0---0---3---3---3---3---2--|---2----|
A|--3------3----|--2---2---3---3---3---3---3--|--3------3----|--2---2---3---3---3---3---3--|---3----|
E|--------------|--3---3---1---1---1---1------|--------------|--3---3---1---1---1---1------|--------|


1st Verse


    q   q   q   q     q   q   q   q   e   q   q   q   q        q   q   q   q
e|------3-------3--|------1-------1----|------0-------0-----|------1-------1----|
B|------3-------3--|------1-------1----|------1-------1-----|------1-------1----|
G|------0-------0--|------2-------2----|------0-------0-----|------2-------2----|
D|------0-------0--|------3-------3----|------2-------2-----|------3-------3----|
A|------2-------2--|--3---3---3---3----|--3---3---3---3-----|--3---3---3---3----|
E|--3---3---3---3--|-------------------|--------------------|-------------------|


    q   q   e   e   q     q   q   e   e   q     q   q    h       q   q   q   q
e|------3--------------|------1--------------|------0---------|------1-------1---|
B|------3-------0------|------1---1----------|------1----1----|------1-------1---|
G|------0---0-------0--|------2-------2------|------0---------|------2-------2---|
D|------0--------------|------3-----------3--|------2---------|------3-------3---|
A|------2--------------|--3---3--------------|--3---3---------|--3---3---3---3---|
E|--3---3--------------|---------------------|----------------|------------------|

1st Solo

    q   e   s   s   e   q  etq    q      h       q   e   s   s   e   q  etq    q      h
e|--3---3---1---1---1---1---0--|--0------0----|--3---3---1---1---1---1---0--|--0------0----|
B|--0---0---1---1---1---1---1--|--1------1----|--0---0---1---1---1---1---1--|--1------1----|
G|--0---0---2---2---2---2---0--|--0------0----|--0---0---2---2---2---2---0--|--0------0----|
D|--0---0---3---3---3---3---2--|--2------2----|--0---0---3---3---3---3---2--|--2------2----|
A|--2---2---3---3---3---3---3--|--3------3----|--2---2---3---3---3---3---3--|--3------3----|
E|--3---3---1---1---1---1------|--------------|--3---3---1---1---1---1------|--------------|

 
2nd Verse


    q   q   q   q     q   q   q   q   e   q   q   q   q        q   q   q   q
e|------3-------3--|------1-------1----|------0-------0-----|------1-------1----|
B|------3-------3--|------1-------1----|------1-------1-----|------1-------1----|
G|------0-------0--|------2-------2----|------0-------0-----|------2-------2----|
D|------0-------0--|------3-------3----|------2-------2-----|------3-------3----|
A|------2-------2--|--3---3---3---3----|--3---3---3---3-----|--3---3---3---3----|
E|--3---3---3---3--|-------------------|--------------------|-------------------|


    q   q   q   q     q   q   q   q   e   q   q   q   q        q   e   e   e  .q
e|------3-------3--|------1-------1----|------0-------0-----|--1---1---1---1---1----|
B|------3-------3--|------1-------1----|------1-------1-----|--1---1---1---1---1----|
G|------0-------0--|------2-------2----|------0-------0-----|--2---2---2---2---2----|
D|------0-------0--|------3-------3----|------2-------2-----|--3---3---3---3---3----|
A|------2-------2--|--3---3---3---3----|--3---3---3---3-----|--3---3---3---3---3----|
E|--3---3---3---3--|-------------------|--------------------|-----------------------|


1st Chorus


    q   q   e   q  ete    e  er  q   e   q     q   q   e   q  ete    e  er  q   e   q 
e|--3---3---1---1---0--|--0------0---0---0--|--3---3---1---1---0--|--0------0---0---0--|
B|--0---0---1---1---1--|--1------1---1---1--|--0---0---1---1---1--|--1------1---1---1--|
G|--0---0---2---2---0--|--0------0---0---0--|--0---0---2---2---0--|--0------0---0---0--|
D|--0---0---3---3---2--|--2------2---2---2--|--0---0---3---3---2--|--2------2---2---2--|
A|--2---2---3---3---3--|--3------3---3---3--|--2---2---3---3---3--|--3------3---3---3--|
E|--3---3--------------|--------------------|--3---3--------------|--------------------|

    q   q   e   q  ete    e  er  q   e   q     q   q   e   q  ete    e  er  q   e   q 
e|--3---3---1---1---0--|--0------0---0---0--|--3---3---1---1---0--|--0------0---0---0--|
B|--0---0---1---1---1--|--1------1---1---1--|--0---0---1---1---1--|--1------1---1---1--|
G|--0---0---2---2---0--|--0------0---0---0--|--0---0---2---2---0--|--0------0---0---0--|
D|--0---0---3---3---2--|--2------2---2---2--|--0---0---3---3---2--|--2------2---2---2--|
A|--2---2---3---3---3--|--3------3---3---3--|--2---2---3---3---3--|--3------3---3---3--|
E|--3---3--------------|--------------------|--3---3--------------|--------------------|

Bridge

    h   e   q  ete      q    e  h      s   s   .q  e   q  ete      q   e   h
e|--2---2---2---2----|--2---2---2---|--2---2---2---2---2---2--|----2---2---2----|
B|--3---3---3---3----|--3---3---3---|--3---3---3---3---3---3--|----3---3---3----|
G|--2---2---2---2----|--2---2---2---|--2---2---2---2---2---2--|----2---2---2----|
D|--0---0---0---0----|--0---0---0---|--0---0---0---0---0---0--|----0---0---0----|
A|-------------------|--------------|-------------------------|-----------------|
E|-------------------|--------------|-------------------------|-----------------|


    s   s   .q  e   q  ete      q   e   h         w
e|--2---2---2---2---2---2--|----2---2---2----|----0------|
B|--3---3---3---3---3---3--|----3---3---3----|----1------|
G|--2---2---2---2---2---2--|----2---2---2----|----0------|
D|--0---0---0---0---0---0--|----0---0---0----|----2------|
A|-------------------------|-----------------|----3------|
E|-------------------------|-----------------|-----------|


2nd Solo

     wr        q   q   e   q  ete    e   e   q   e   q      q   q   e   q  ete    e   e   q   e   q 
e|----------|--3---3---1---1---0--|--0---0---0---0---0---|--3---3---1---1---0--|--0---0---0---0---0---|
B|----------|--0---0---1---1---1--|--1---1---1---1---1---|--0---0---1---1---1--|--1---1---1---1---1---|
G|----------|--0---0---2---2---0--|--0---0---0---0---0---|--0---0---2---2---0--|--0---0---0---0---0---|
D|----------|--0---0---3---3---2--|--2---2---2---2---2---|--0---0---3---3---2--|--2---2---2---2---2---|
A|----------|--2---2---3---3---3--|--3---3---3---3---3---|--2---2---3---3---3--|--3---3---3---3---3---|
E|----------|--3---3--------------|----------------------|--3---3--------------|----------------------|

   
    q   q   e   q  ete    e   e   q   e   q      q   q   e   q  ete    e   e   q   e   q 
e|--3---3---1---1---0--|--0---0---0---0---0---|--3---3---1---1---0--|--0---0---0---0---0---|
B|--0---0---1---1---1--|--1---1---1---1---1---|--0---0---1---1---1--|--1---1---1---1---1---|
G|--0---0---2---2---0--|--0---0---0---0---0---|--0---0---2---2---0--|--0---0---0---0---0---|
D|--0---0---3---3---2--|--2---2---2---2---2---|--0---0---3---3---2--|--2---2---2---2---2---|
A|--2---2---3---3---3--|--3---3---3---3---3---|--2---2---3---3---3--|--3---3---3---3---3---|
E|--3---3--------------|----------------------|--3---3--------------|----------------------|


3rd Verse


    q   q   q   q     q   q   q   q   e   q   q   q   q        q   q   q   q
e|------3-------3--|------1-------1----|------0-------0-----|------1-------1----|
B|------3-------3--|------1-------1----|------1-------1-----|------1-------1----|
G|------0-------0--|------2-------2----|------0-------0-----|------2-------2----|
D|------0-------0--|------3-------3----|------2-------2-----|------3-------3----|
A|------2-------2--|--3---3---3---3----|--3---3---3---3-----|--3---3---3---3----|
E|--3---3---3---3--|-------------------|--------------------|-------------------|


    q   q   q   q     q   q   q   q   e   q   q   q   q        q   e   e   e  .q
e|------3-------3--|------1-------1----|------0-------0-----|--1---1---1---1---1----|
B|------3-------3--|------1-------1----|------1-------1-----|--1---1---1---1---1----|
G|------0-------0--|------2-------2----|------0-------0-----|--2---2---2---2---2----|
D|------0-------0--|------3-------3----|------2-------2-----|--3---3---3---3---3----|
A|------2-------2--|--3---3---3---3----|--3---3---3---3-----|--3---3---3---3---3----|
E|--3---3---3---3--|-------------------|--------------------|-----------------------|


2nd Chorus

    q   q   e   q  ete    e  er  q   e   q     q   q   e   q  ete    e  er  q   e   q 
e|--3---3---1---1---0--|--0------0---0---0--|--3---3---1---1---0--|--0------0---0---0--|
B|--0---0---1---1---1--|--1------1---1---1--|--0---0---1---1---1--|--1------1---1---1--|
G|--0---0---2---2---0--|--0------0---0---0--|--0---0---2---2---0--|--0------0---0---0--|
D|--0---0---3---3---2--|--2------2---2---2--|--0---0---3---3---2--|--2------2---2---2--|
A|--2---2---3---3---3--|--3------3---3---3--|--2---2---3---3---3--|--3------3---3---3--|
E|--3---3--------------|--------------------|--3---3--------------|--------------------|

    q   q   e   q  ete    e  er  q   e   q     q   q   e   q  ete    e  er  q   e   q 
e|--3---3---1---1---0--|--0------0---0---0--|--3---3---1---1---0--|--0------0---0---0--|
B|--0---0---1---1---1--|--1------1---1---1--|--0---0---1---1---1--|--1------1---1---1--|
G|--0---0---2---2---0--|--0------0---0---0--|--0---0---2---2---0--|--0------0---0---0--|
D|--0---0---3---3---2--|--2------2---2---2--|--0---0---3---3---2--|--2------2---2---2--|
A|--2---2---3---3---3--|--3------3---3---3--|--2---2---3---3---3--|--3------3---3---3--|
E|--3---3--------------|--------------------|--3---3--------------|--------------------|

3rd Solo


    q   q   e   q  ete    e  er  q   e   q     q   q   e   q  ete    e  er  q   e   q 
e|--3---3---1---1---0--|--0------0---0---0--|--3---3---1---1---0--|--0------0---0---0--|
B|--0---0---1---1---1--|--1------1---1---1--|--0---0---1---1---1--|--1------1---1---1--|
G|--0---0---2---2---0--|--0------0---0---0--|--0---0---2---2---0--|--0------0---0---0--|
D|--0---0---3---3---2--|--2------2---2---2--|--0---0---3---3---2--|--2------2---2---2--|
A|--2---2---3---3---3--|--3------3---3---3--|--2---2---3---3---3--|--3------3---3---3--|
E|--3---3--------------|--------------------|--3---3--------------|--------------------|

    q   q   e   q  ete    e  er  q   e   q     q   q   e   q  ete    e  er  q   e   q 
e|--3---3---1---1---0--|--0------0---0---0--|--3---3---1---1---0--|--0------0---0---0--|
B|--0---0---1---1---1--|--1------1---1---1--|--0---0---1---1---1--|--1------1---1---1--|
G|--0---0---2---2---0--|--0------0---0---0--|--0---0---2---2---0--|--0------0---0---0--|
D|--0---0---3---3---2--|--2------2---2---2--|--0---0---3---3---2--|--2------2---2---2--|
A|--2---2---3---3---3--|--3------3---3---3--|--2---2---3---3---3--|--3------3---3---3--|
E|--3---3--------------|--------------------|--3---3--------------|--------------------|


    q   q   e   q  ete    e  er  q   e   q     q   q   e   q  ete    e  er  q   e   q 
e|--3---3---1---1---0--|--0------0---0---0--|--3---3---1---1---0--|--0------0---0---0--|
B|--0---0---1---1---1--|--1------1---1---1--|--0---0---1---1---1--|--1------1---1---1--|
G|--0---0---2---2---0--|--0------0---0---0--|--0---0---2---2---0--|--0------0---0---0--|
D|--0---0---3---3---2--|--2------2---2---2--|--0---0---3---3---2--|--2------2---2---2--|
A|--2---2---3---3---3--|--3------3---3---3--|--2---2---3---3---3--|--3------3---3---3--|
E|--3---3--------------|--------------------|--3---3--------------|--------------------|

    q   q   e   q  ete    e  er  q   e   q     q   q   e   q  ete    e  er  q   e   q 
e|--3---3---1---1---0--|--0------0---0---0--|--3---3---1---1---0--|--0------0---0---0--|
B|--0---0---1---1---1--|--1------1---1---1--|--0---0---1---1---1--|--1------1---1---1--|
G|--0---0---2---2---0--|--0------0---0---0--|--0---0---2---2---0--|--0------0---0---0--|
D|--0---0---3---3---2--|--2------2---2---2--|--0---0---3---3---2--|--2------2---2---2--|
A|--2---2---3---3---3--|--3------3---3---3--|--2---2---3---3---3--|--3------3---3---3--|
E|--3---3--------------|--------------------|--3---3--------------|--------------------|


3rd Chorus


    q   q   e   q  ete    e  er  q   e   q     q   q   e   q  ete    e  er  q   e   q 
e|--3---3---1---1---0--|--0------0---0---0--|--3---3---1---1---0--|--0------0---0---0--|
B|--0---0---1---1---1--|--1------1---1---1--|--0---0---1---1---1--|--1------1---1---1--|
G|--0---0---2---2---0--|--0------0---0---0--|--0---0---2---2---0--|--0------0---0---0--|
D|--0---0---3---3---2--|--2------2---2---2--|--0---0---3---3---2--|--2------2---2---2--|
A|--2---2---3---3---3--|--3------3---3---3--|--2---2---3---3---3--|--3------3---3---3--|
E|--3---3--------------|--------------------|--3---3--------------|--------------------|

    q   q   e   q  ete    e  er  q   e   q     q   q   e   q  ete    e  er  q   e   q 
e|--3---3---1---1---0--|--0------0---0---0--|--3---3---1---1---0--|--0------0---0---0--|
B|--0---0---1---1---1--|--1------1---1---1--|--0---0---1---1---1--|--1------1---1---1--|
G|--0---0---2---2---0--|--0------0---0---0--|--0---0---2---2---0--|--0------0---0---0--|
D|--0---0---3---3---2--|--2------2---2---2--|--0---0---3---3---2--|--2------2---2---2--|
A|--2---2---3---3---3--|--3------3---3---3--|--2---2---3---3---3--|--3------3---3---3--|
E|--3---3--------------|--------------------|--3---3--------------|--------------------|


Chorus reprise/outro


    q   q   e   q  ete    e  er  q   e   q     q   q   e   q  ete    e  er  q   e   q 
e|--3---3---1---1---0--|--0------0---0---0--|--3---3---1---1---0--|--0------0---0---0--|
B|--0---0---1---1---1--|--1------1---1---1--|--0---0---1---1---1--|--1------1---1---1--|
G|--0---0---2---2---0--|--0------0---0---0--|--0---0---2---2---0--|--0------0---0---0--|
D|--0---0---3---3---2--|--2------2---2---2--|--0---0---3---3---2--|--2------2---2---2--|
A|--2---2---3---3---3--|--3------3---3---3--|--2---2---3---3---3--|--3------3---3---3--|
E|--3---3--------------|--------------------|--3---3--------------|--------------------|

    q   q   e   q  ete    e  er  q   e   q     q   q   e   q  ete    e  er  q   e   q        w
e|--3---3---1---1---0--|--0------0---0---0--|--3---3---1---1---0--|--0------0---0---0--|-----2-----|
B|--0---0---1---1---1--|--1------1---1---1--|--0---0---1---1---1--|--1------1---1---1--|-----3-----|
G|--0---0---2---2---0--|--0------0---0---0--|--0---0---2---2---0--|--0------0---0---0--|-----2-----|
D|--0---0---3---3---2--|--2------2---2---2--|--0---0---3---3---2--|--2------2---2---2--|-----0-----|
A|--2---2---3---3---3--|--3------3---3---3--|--2---2---3---3---3--|--3------3---3---3--|-----------|
E|--3---3--------------|--------------------|--3---3--------------|--------------------|-----------|


************************************

| /   slide up
| \   slide down
| h   hammer-on
| p   pull-off
| ~   vibrato
| +   harmonic
| x   Mute note
| b   Bend
| pb  Pre-bend
| br  Bend release
| pbr Pre-bend release
| brb Bend release bend

************************************

            
            
Suggest correction
Creating personal tab
Creating personal tab
You can edit any tab online and save it as your Personal.

You can edit, replace or remove any tab part or add personal notes – all changes will be seen only by you.

Personal tabs can be accessed anytime from any device, even offline.
Learn more »
Give kudos to tab author, rate the tab!
1 2 3 4 5
comments
print report bad tab
guest
You may want to rate the tab now too:
select rating
Wanna post a correction for this tab? Suggest correction