Oops, an error
Loading. Please wait.

One More Time Tab

by Outlier
241 views 1 this week
1 commentread comment
1 2 3 4 5
1 last vote to show rating
add to favorites
×
Save as Personal and add changes to this tab that will be seen only by you. Learn more ›
×
You can save this tab as Personal to edit and correct it or add notes. All changes will be seen only by you. Learn more »
save as personal
new!
launch autoscroll
font size
0
reset
how to read this tab
guitar tuner
Autoscroll
slow
fast
+/-
esc
set tempo
stop
(rock band from australia)

OUTLIER - ONE  MORE  TIME
(to listen to One More Time go to www.purevolume.com/outlier)
ALL SONGS, MUSIC AND LYRICS ARE WRITTEN, ARRANGED AND PERFORMED BY OUTLIER (James 
Michael Dawson, Nic Puertolas)
(ALL SONGS COPYRIGHT PARRINO, DAWSON, PUERTOLAS 2002)

Tuning, standard tuning down one full step: D G C F A D

(T= Right handed Tap)  (No picking through entire intro)

Intro: Part A

D—T-12p0-h10----T-12p0-h8-----T-12p0-h7-----T-12p0-h8------T-12p0-------------|h5
A-----------------------------------------------------------------------------|
F-----------------------------------------------------------------------------|
C-----------------------------------------------------------------------------|
G-----------------------------------------------------------------------------|
D-----------------------------------------------------------------------------|

D---- T-12p0-h10------T-12p0-h8-----T-12p0-h7h8p0-h7h8p0- h7h8----------------|
A-----------------------------------------------------------------------------|
F-----------------------------------------------------------------------------|
C-----------------------------------------------------------------------------|
G-----------------------------------------------------------------------------|
D-----------------------------------------------------------------------------|

D----T-12p0-h10------T-12p0-h8---T-12p0-h7---T-12p0-h8-----T-12p0-h5---------|
A----------------------------------------------------------------------------|
F----------------------------------------------------------------------------|
C----------------------------------------------------------------------------|
G----------------------------------------------------------------------------|
D----------------------------------------------------------------------------|

D------- T-12p0-h10------T-12p0-h8---T-12p0h7h8h10p8p7------------------------|
A-------------------------------------------------------h10-------------------|
F-----------------------------------------------------------------------------|
C-----------------------------------------------------------------------------|
G-----------------------------------------------------------------------------|
D-----------------------------------------------------------------------------|

Part B (drums enter)

D-----------------------------------------------------------------------------|
A-T-12p0-h10--T-12p0-h8--T-12p0-h7--T-12p0-h8--T-12p0-h7--T-12p0-h5--T-12p0-7-|
F-----------------------------------------------------------------------------|
C-----------------------------------------------------------------------------|
G-----------------------------------------------------------------------------|
D-----------------------------------------------------------------------------|

D-----------------------------------------------------------------------------|
A--T-12p0-h5--T-12p0-h3--T-12p0-h5--T-12p0-h7--T-12p0-h5--T-12p0-h7--T-12p0-8-|
F-----------------------------------------------------------------------------|
C-----------------------------------------------------------------------------|
G-----------------------------------------------------------------------------|
D-----------------------------------------------------------------------------|

D----------------------|------------------------------------------------------------|
A-T-12p0-h7--T-12p0-h8-|-x2--T-13p0-h10--T-13p0-h8--T-13p0-h7--T-13p0-h8--T-3p0-h7--|
F----------------------|--(repeat)--------------------------------------------------|
C----------------------|------------------------------------------------------------|
G----------------------|------------------------------------------------------------|
D----------------------|------------------------------------------------------------|

D---------------------------------------------------------------------------|
A-T-13p0-h5--T-13p0-h7--T-13p0-h5--T-15p0-h3--T-15p0-h5--T-15p0-h7--T-15p0--|h5
F---------------------------------------------------------------------------|
C---------------------------------------------------------------------------|
G---------------------------------------------------------------------------|
D---------------------------------------------------------------------------|

D-----------------------------------------------------------------------------|
A-T-15p0-h7--T-15p0-h8--T-15p0-h7--T-15p0-h8--T-17p0-h10--T-17p0--------------|h8
F-----------------------------------------------------------------------------|
C-----------------------------------------------------------------------------|
G-----------------------------------------------------------------------------|
D-----------------------------------------------------------------------------|

D-----------------------------------------------------------------------------|
A---T-17p0-h7--T-17p0-h8--T-17p0-h7--T-17p0-h5--T-17p0-h7-h-T-17p0-h5---------|
F-----------------------------------------------------------------------------|
C-----------------------------------------------------------------------------|
G-----------------------------------------------------------------------------|
D-----------------------------------------------------------------------------|

D----------------------------------------------------------------------------|
A-T-17p0-h3-- T-17p0-h5--T-17p0-h7--- T-17p0-h8-- T-17p0-h5~~~---------------|
F----------------------------------------------------------------------------|
C----------------------------------------------------------------------------|
G----------------------------------------------------------------------------|
D----------------------------------------------------------------------------|

(repeat both Part A & B)

Pre-Verse
D---------------------------------------------------------------------------|
A---------------------------------------------------------------------------|
F--9-----\------------------------------------------------------------------|
C--x---------(depress whammy bar completely)---------x2---------------------|
G--7-----\------------------------------------------------------------------|
D---------------------------------------------------------------------------|
(with boss phaser rate turned all the way up) (2 bars)

(phaser off)

Repeat this riff through-out verse 1
D---------------------------------------------------------------------|
A---------------------------------------------------------------------|
F-9--10--9--7----9---7----------7--------------------------------0----|
C-x-----------10-------10---9------10----9----7------10--9---7--------|
G-7-------------------------------------------------------------------|
D---------------------------------------------------------------------|

(1st time only)
D-------------------------------------------------------|
A-------------------------------------------------------|
F------9----12----14---11-------------------------------|
C------x----x-----x-----x-------------------------------|
G------7---10----12-----9-------------------------------|
D-------------------------------------------------------|


Chorus Part 1 (double time)

D--------------------------------------------------------------------------|
A--------------------------------------------------------------------------|
F--------------------------------------------------------------------------|
C--14------------14---------------14---10---------10---------10------------|
G--14------------14---------------14---10---------10---------10------------|
D----12-12-12-12-----12-12-12-12----------8-8-8-8----8-8-8--8----8-8-8-8---|
(Palm Mute Low D-string notes)

D-----------------------------------------------------|--------------|
A-----------------------------------------------------|--------------|
F-----------------------------------------------------|--------------|
C--17-----------------17-----------------------17-----|--------------|x3
G--17-----------------17-----------------------17-----|--------------|
D------15-15-15-15---------15-15-15-15----------------|--------------|


D----------------------------------------------------------------------------|
A----------------------------------------------------------------------------|
F---9-----9---9---9--------5--5---5---5--------12--12--12--11----------------|
C---9-----9---9---9--------5--5---5---5--------12--12--12--11----------------|
G---7-----7---7---7--------3--3---3---3--------10--10--10--9-----------------|
D---7-----7---7---7--------3--3---3---3--------10--10--10--9-----------------|

Chorus Part2 (half time)

D----------------------------------------------------------------------|
A----------------------------------------------------------------------|
F--9-------------------------------------------------------------------|
C--x---------(strum continuously)--------------------------------------|
G--7-------------------------------------------------------------------|
D----------------------------------------------------------------------|
(with boss phaser rate 25%)

VERSE 2 (no picking, right hand tapping only)

D---------------------------------------------------------------------------|
A---------------------------------------------------------------------------|
F---------------------------------------------------------------------------|
C---------------------------------------------------------------------------|
G----------h14-----------------h14----------------h14-------------h12-------|
D-h12--T15----T15----h12---T15------T15--h12--T15----T15---h10-T15----T15---|X2

D----------------------------------------------------------------------------|
A----------------------------------------------------------------------------|
F----------------------------------------------------------------------------|
C----------------------------------------------------------------------------|
G----------h10---------------h10---------------h10------------------h12------|
D-h8---T15-----T15---h8--T15-----T15---h8--T15-----T15---h10--T15-------T15--|


D-------------------------------------------------------------------------|
A-------------------------------------------------------------------------|
F-------------------------------------------------------------------------|
C-------------------------------------------------------------------------|
G---------h10-----------------h10-------h12-----h10----h9----h10----------|
D-h8--T15-----T15-----h8--T15-----T15-------T15----T15---T15----T15-------|

(Repeat Verse 2, 3 times)

then play:
Chorus Part 1 (double time)
Chorus Part2 (half time)

Guitar Solo:
(use right handed sweep picking technique)

PART A
D-19---15-------------15---19--15--------------15---19---15-------------------|
A---------17------17---------------17-------17---------------17---------------|
F-------------16-----------------------16-------------------------16----------|
C-----------------------------------------------------------------------------|
G-----------------------------------------------------------------------------|
D-----------------------------------------------------------------------------|

(1st, 2nd, 3rd time ending)
D-------------15h19p15--------------------------15h19p15-----------------|
A---------15------------15------------------15--------------15-----------|
F-----16---------------------16-------16---------------------------16----|
C-17------------------------------17-------------------------------------|
G------------------------------------------------------------------------|
D------------------------------------------------------------------------|
(repeat 4 times)


(4th time ending)
D----------------15h19p15------------------------17h20p17---------------|
A-----------15-------------15----------------17------------17-----------|
F--------16--------------------16-------17--------------------17--------|
C----17----------------------------19-----------------------------------|
G-----------------------------------------------------------------------|
D-----------------------------------------------------------------------|


PART B (same as part a, but down 6 frets)
D-14-10------------10---14-10------------10--14--10----------------------|
A-------12------12------------12-----12-------------12-------------------|
F-----------11--------------------11--------------------11---------------|
C------------------------------------------------------------------------|
G------------------------------------------------------------------------|
D------------------------------------------------------------------------|

(1st, 2nd, 3rd time ending)
D-------------10h114p10---------------------10h14p10--------------------|
A---------10------------10--------------10------------10----------------|
F------11------------------11-------11--------------------11------------|
C--12--------------------------12-----------------------------12--------|
G-----------------------------------------------------------------------|
D-----------------------------------------------------------------------|
(repeat 4 times)

(4th time ending)
D-------------10h114p10---------------------------12h15p12---------------|
A---------10-------------10---------------12----------------12-----------|
F-----11--------------------11-------12-----------------------12---------|
C--12---------------------------14---------------------------------------|
G------------------------------------------------------------------------|
D------------------------------------------------------------------------|


PART C
D---3--0-0-0-0-0------5-0-0-0-0-0-------7-0-0-0-------------------------|
A-----------------------------------------------------------------------|
F-----------------------------------------------------------------------|
C-----------------------------------------------------------------------|
G-----------------------------------------------------------------------|
D-----------------------------------------------------------------------|

D-------------15h19p15--------------------------15h19p15-----------------|
A---------15------------15------------------15--------------15-----------|
F-----16---------------------16-------16---------------------------16----|
C-17------------------------------17-------------------------------------|
G------------------------------------------------------------------------|
D------------------------------------------------------------------------|


D---5--0-0-0-0-0------7-0-0-0-0-0-------8-0-0-0------------------------|
A----------------------------------------------------------------------|
F----------------------------------------------------------------------|
C----------------------------------------------------------------------|
G----------------------------------------------------------------------|
D----------------------------------------------------------------------|

D-------------15h19p15--------------------------15h19p15-----------------|
A---------15------------15------------------15--------------15-----------|
F-----16---------------------16-------16---------------------------16----|
C-17------------------------------17-------------------------------------|
G------------------------------------------------------------------------|
D------------------------------------------------------------------------|


D---7--0-0-0-0-0------8-0-0-0-0-0-------10--0-0-0--------------------------|
A--------------------------------------------------------------------------|
F--------------------------------------------------------------------------|
C--------------------------------------------------------------------------|
G--------------------------------------------------------------------------|
D--------------------------------------------------------------------------|

D-------------15h19p15--------------------------15h19p15-----------------|
A---------15------------15------------------15--------------15-----------|
F-----16---------------------16-------16---------------------------16----|
C-17------------------------------17-------------------------------------|
G------------------------------------------------------------------------|
D------------------------------------------------------------------------|


D---12--0-0-0-0-0------14-0-0-0-0-0-------15--0-0-0----------(7)--|
A------------------------------------------------------------(7)--|
F------------------------------------------------------------(7)--|
C-----------------------------------------------------------------|Hit harmonics then
G-----------------------------------------------------------------|depress whammy bar fully
D-----------------------------------------------------------------|

Soft Chorus Part 1:
(finger picking, clean tone)
D-0--------0--------0----0--------0-------0----0-------0-------0------------|
A---7---------7-------------3--------3-----------10-------10----------------|
F-----0----------0-------------0-------0------------0--------0--------------|
C---------------------------------------------------------------------------|
G-7--------7--------5----3--------3-------3---10-------10-------9-----------|
D---------------------------------------------------------------------------|
(repeat four times)

Soft Chorus Part 2:
(strum with pick, building in dynamic then turn on distortion pedal)
D---12-------------------------------------------------------------------|
A---x--------------------------------------------------------------------|
F----9-------------------------------------------------------------------|
C---x--------------------------------------------------------------------|
G---7--------------------------------------------------------------------|
D---0--------------------------------------------------------------------|

Play Intro Part A & B


Ending:


D--------------------------------------------------------------------------|
A--------------------------------------------------------------------------|
F--------------------------------------------------------------------------|
C---2----2----3--3--3-------2---2------------------------------------------|
G---2----2----3--3--3-------2---2------------------------------------------|
D---0----0----1--1--1-------0---0------------------------------------------|

KEY:

T12= Tap the note with a right hand finger.
12h14= Pick first note and hammer on second note with left hand finger
17p12= Pick first note and pull off to second note with left hand finger
16b18= Pick first note and bend string up one step to the second notes pitch
(12) = Harmonic, sounded by lightly touching the string with the left hand finger and picking the note.
Suggest correction
Give kudos to tab author, rate the tab!
1 2 3 4 5
comments
print report bad tab
1 comment total.
0 reply
DirgeForTheSun 20 Feb 18, 2005 07:00 PM

yay outlier

guest
Wanna post a correction for this tab? Suggest correction