Oops, an error
Loading. Please wait.

Feeding Frenzy bass

265 views 1 this week
no commentswrite comment
1 2 3 4 5
3 more votes to show rating
add to favorites
×
Save as Personal and add changes to this tab that will be seen only by you. Learn more ›
×
You can save this tab as Personal to edit and correct it or add notes. All changes will be seen only by you. Learn more »
launch autoscroll
font size
0
reset
guitar tuner
edit
Autoscroll
slow
fast
+/-
esc
set tempo
stop
Author
Feeding Frenzy
by Overkill
composed by Bobby "Blitz" Ellsworth and D.D. Verni
transcribed by Nicol Jocic
copywrite to Overkill


h = hammer
p = pull off
\ = slide down

Additional Notes/Details:
Tuning: E standard
Key of the song: E minor
Duration: 4 minutes 13 seconds
Type of song: instrumental
Album: The Killing Spree
Year:  1996
Track number: 7
Recorded: September-October, 1995 at Carriage House Studio, Stamford, Connecticut
Mixed by: Chris Tsangarides and Overkill
Engineered by: Andy Katz, John Montagnese, and Phil Magnotti
Mastered by: Howie Weinberg at Masterdisc, New York City






Intro 1 (1st Bass Solo):
G|----14------------------12----------15-------------------|
D|--------14----------12------12--15------15---------------|
A|12----------12--13--------------------------13--13h15--13|   
E|---------------------------------------------------------|   x4, slide down to


G|---11----------------9---------12-------------------|
D|-------11---------9-----9--12------12---------------|
A|9----------9--10-----------------------10--10h12--10|
E|----------------------------------------------------|


G|---11----------------9-------------9----|
D|-------11---------9-------------9-------|
A|9----------9--10--------10--11--------11|
E|----------------------------------------|


G|----14------------------12----------15----|
D|--------14----------12------12--15------15| 
A|12----------12--13------------------------| then straight to intro 2
E|------------------------------------------|

Intro 2:

G|------------------------------------|
D|--------2h3p2---------------2h3p2---|
A|0--2h5--------------0--2h5----------|
E|---------------0-------------------0|
                                                          

G|---------------0--2h3p2p0--------------|
D|--------2h3p2--------------2--0--2p0---|
A|0--2h5--------------------------------2|                                      
E|---------------------------------------|   x3               


G|------------------------------------|
D|--------2h3p2---------------2h3p2---|
A|0--2h5--------------0--2h5----------|
E|---------------0-------------------0|


G|---------------0--2h3p2p0-----0----------------------------------|
D|--------2h3p2--------------2-----2--0h2p0-----0------------------|
A|0--2h5-------------------------------------2-----2--0-----0------|
E|-------------------------------------------------------3-----3--0|


Verse 1

G|----------------------------------------------|
D|----------------------------------------------|
A|---------2--1--0-----1--0-----------0--0------|
E|0--2--3-----------3--------3--1--3--------3--1|


G|----------------------------------------------|
D|----------------------------------------------|
A|---------2--1--0-----1--0-----------6--5------|
E|0--2--3-----------3--------3--1--3--------6--5|


G|----------------------------------------------|
D|----------------------------------------------|
A|---------2--1--0-----1--0-----------0--0------|
E|0--2--3-----------3--------3--1--3--------3--1|

                                     (played the second time only)
G|----------------------------------||----------|
D|----------------------------------||----------|
A|---------2--1--0-----0--6--5------||3--2------|                                
E|0--2--3-----------3-----------6--5||------3--2|   x2


Verse 2

G|----------------------------------------------------------------|
D|----------------------------------------------------------------|
A|----------------------------------------------------------------|
E|0--0--0--0--0--0--0--0--0--0--0--0--0--0--0--0--5--3--5--3--5--6|


G|-------------------------------------------------------------------------|
D|-------------------------------------------------------------------------|
A|-------------------------------------------------------------------------|     
E|0--0--0--0--0--0--0--0--0--0--0--0--0--0--0--0--6--5--3--5--6--5--3--5--3|   x2


G|------------------------------------------------|
D|------------------------------------------------|
A|------------------------------------------------|                              
E|6--6--6--6--6--6--0----0--0--0--0--0--0--0--0--0|   x4

                         played after 4th time
G|----------------------|----|
D|----------------------|----|
A|----------------------|----|                                                   
E|0--0--0--0--0--0--0--0|0---|   x4


repeat Verse 1 and Verse 2


then:

G|------------------------------------|
D|--------2h3p2---------------2h3p2---|
A|0--2h5--------------0--2h5----------|
E|---------------0-------------------0|
                                                          

G|---------------0--2h3p2p0--------------|
D|--------2h3p2--------------2--0--2p0---|
A|0--2h5--------------------------------2|
E|---------------------------------------|               


G|------------------------------------|
D|--------2h3p2---------------2h3p2---|
A|0--2h5--------------0--2h5----------|
E|---------------0-------------------0|


G|---------------0--2h3p2p0-----0-------------------------------|
D|--------2h3p2--------------2-----2--0h2p0-----0---------------|
A|0--2h5-------------------------------------2-----2--0-----0---|
E|-------------------------------------------------------3-----3|


G|------------------------------------|
D|------------------------------------|
A|------------------------------------|
E|0--0----0-0----0--0--0--0--12----12\| slide straight into the Outro


Outro (2nd Bass Solo)

G|------9--9h11--9--------9--12--12--11h12p11--9|
D|----------------------------------------------|
A|---7-----------------7------------------------|
E|0-----------------0---------------------------|


G|------9--12h14--12--12p11--7-----7--11--7---|
D|---------------------------9--9------------9|
A|---7----------------------------------------|
E|0-------------------------------------------|


G|------9--9h11--9--------9--12--12--11h12p11--9|
D|----------------------------------------------|
A|---7-----------------7------------------------|
E|0-----------------0---------------------------|


G|------9--12h14--12--12p11--7-----7--11--7-----7--11|
D|---------------------------9--9------------9-------|
A|---7-----------------------------------------------|
E|0--------------------------------------------------|


G|7-----7--11--7-----7--11--7-----7--11--7-----7--12--------------12------------|
D|8--8------------8---------7--7------------7-----12--12------12------12------12|
A|------------------------------------------------10------10--------------10----|
E|------------------------------------------------------------------------------|



G|12-------------12-------------12-------------12-------------------12------0|
D|----12-----12------12-----12------12-----12------12-----12----12------12---|
A|--------9--------------9--------------8--------------8---------------------|
E|------------------------------------------------------------0--------------|


end

            
            
Suggest correction
Creating personal tab
Creating personal tab
You can edit any tab online and save it as your Personal.

You can edit, replace or remove any tab part or add personal notes – all changes will be seen only by you.

Personal tabs can be accessed anytime from any device, even offline.
Learn more »
Give kudos to tab author, rate the tab!
1 2 3 4 5
comments
print report bad tab
guest
You may want to rate the tab now too:
select rating
Wanna post a correction for this tab? Suggest correction