Oops, an error
Loading. Please wait.

Feel The Fire bass

version 1
version 1

Whole song

Interactive

268 views 3 this week
no commentswrite comment
1 2 3 4 5
2 more votes to show rating
add to favorites
×
Save as Personal and add changes to this tab that will be seen only by you. Learn more ›
×
You can save this tab as Personal to edit and correct it or add notes. All changes will be seen only by you. Learn more »
launch autoscroll
font size
0
reset
guitar tuner
edit
Autoscroll
slow
fast
+/-
esc
set tempo
stop
Author
-------------------------------------------------------------------------------
                            Feel The Fire - Overkill
-------------------------------------------------------------------------------
Tabbed by: ghidorah89

Intro
G|-------------------------------|  |--------------------------------------6-|
D|-------------------------------|6x|----------------------------------------|1x
A|--4-444-444-444-444-444-444-444|  |--2-4-----------------------------2-4---|
E|-------------------------------|  |----------------------------------------|

G|---------------------------------------------------------------------------|
D|---------------------------------------------------------------------------|2x
A|--2-4-444-444-444-444-444-444-444------------------------------------------|
E|---------------------------------------------------------------------------|

Verse
     eating through the...
G|---------------------------------------------------------------------------|
D|---------------------------------------------------------------------------|4x
A|--2-4-444-444-444-444-444-444-444------------------------------------------|
E|---------------------------------------------------------------------------|

Bridge
     looking down the barrel...
G|---------------------------------------------------------------------------|
D|---------------------------------------------------------------------------|
A|--4-6-7-------------2------------------------4-444-444-444-2-4-444-444-44--|
E|---------------------------------------------------------------------------|
     look up the weasel...
G|---------------------------------------------------------------------------|
D|---------------------------------------------------------------------------|
A|--4-6-7-------------2------------------------4-444-444-444-444-444-444-444-|
E|---------------------------------------------------------------------------|

G|---------------------------------------------------------------------------|
D|---------------------------------------------------------------------------|
A|--2-4-444-444-444-444-444-444-444------------------------------------------|
E|---------------------------------------------------------------------------|
       
     VERSE + BRIDGE (the upper 2 lines from Bridge) 

BridgeII
          prepare for your...
G|---------------------------------------------------------------------------|
D|---------------------------------------------------------------------------|2x
A|--2-0-------------2\7-6-4-444-444-444-444-444-444-444----------------------|
E|---------------------------------------------------------------------------|

Break
G|---------------------------------------------------------------------------|
D|---------------------------------------------------------------------------|
A|--2-444-2h444-2h44-2h44-2h44-4-4-2-----------------------------------------|
E|-----------------------------------4---------------------------------------|

VERSE + BRIDGE 

           prepare for your...                                satan waits...
G|---------------------------------------------------------------------------|
D|---------------------------------------------------------------------------|
A|--2-0--------------2\7-6-4-444-444-444-444-444-444-444--2-0------2\7-6-----|
E|---------------------------------------------------------------------------|

G|---------------------------------------------------------------------------|
D|---------------------------------------------------------------------------|
A|--4----4----4-7-6---4----4----4----4-7-6---44444---------------------------|
E|-----7----7-------7----7----7----7-------7-------5-4-444-5-4-444-5-4-5-7-5-|

G|-----------------------------------------|  |------------------------------|
D|-----------------------------------------|2x|------------------------------|
A|-----------------------------------------|  |--4----4----4-7-6---4----4----|
E|--4-444-5-4-444-5-4-444-5-4-5-7-5-4-444-7|  |-----7----7-------7----7----7-|

G|---------------------------------------------------------------------------|
D|---------------------------------------------------------------------------|
A|--4----4-7-6-4---4444------------------------------------------------------|
E|-----7---------7------5-4-444-5-4-444-5-4-5-7-5-4-444-5-4-444-5-4-444-5-4--|

G|-----------------------|
D|-----------------------|
A|-----------------------|
E|--5--7--5--4--5--7--5--|

G|---------------------------------------------------------------------------|
D|---------------------------------------------------------------------------|3x
A|--------------4--------------5-4-------------4--7-6-4---5-4---5------------|
E|--4-4-4-4-4-4----4-4-4-4-4-4-----4-4-4-4-4-4----------7-----7--------------|

G|---------------------------------------------------------------------------|
D|---------------------------------------------------------------------------|
A|--------------4--------------5-4-------------4-----------------------------|
E|--4-4-4-4-4-4----4-4-4-4-4-4-----4-4-4-4-4-4---7--4-4-7--4-4-7--4-4-7--2--4|

  higher, higher...             ...like a witch...
G|---------------------------------------------------------------------------|
D|---------------------------------------------------------------------------|
A|---------------------------------------------------------------------------|
E|----------------------------------------9--7--5-5--4/0---------------------|

   than a bitch...               ...run, hide...   ...too late...
G|---------------------------------------------------------------------------|
D|---------------------------------------------------------------------------|
A|--------4---------5--4--2--4------2----------------2-2-2-2-2-2-2-2-2-2-2-2-|
E|---------------------------------------------------------------------------|

G|---------------------------------------------4-----------------4-----------|
D|--------------------------------4-----4--------777-666-444-------777-666---|
A|--2-0-5-2-222-4-444-5-555-7-777---7-5---7-5----------------7-5-------------|
E|---------------------------------------------------------------------------|

G|----------4-----------------4----------------------------------------------|
D|--444-------777-666-444-------777-666-444----------------------------------|
A|------7-5---------------7-5---------------7-5------------------------------|
E|---------------------------------------------------------------------------|

Solo
G|---------------------------------------------------------------------------|
D|---------------------------------------------------------------------------|2x
A|--4-444-444-444-444-444-444-444-2-4-444-444-444-444-444-444-444-2----------|
E|---------------------------------------------------------------------------|

G|---------------------------------------------------------------------------|
D|----------------------------------------------------------2----------------|
A|--2-222-222-222-222-222-222-222-0-2-222-222-222-222-222-2---2--------------|
E|---------------------------------------------------------------------------|

G|---------------------------------------------------------------------------|
D|---------------------------------------------------------------------------|
A|-4-444-444-444-444-444-444-444-2-4-444-444-444-444-444-444-----------------|
E|---------------------------------------------------------------------------|

G|---------------------------------------------------------------------------|
D|---------------------------------------------------------------------------|3x
A|--4-6-7-------2-------4-444-444-444-444-444-444----------------------------|
E|---------------------------------------------------------------------------|


G|---------------------------------------------------------------------------|
D|---------------------------------------------------------------------------|
A|--4-2-0-------2\7-6-4--------2-4--------2-4--------------------------------|
E|-------------------------------------------------4-444-444-444-4-----------|

G|------------------------------------------------------------------6--------|
D|---------------------------------------------------------------------------|
A|--4--------2-4-------2-4----------------------------5----4----2\4----------|
E|------------------------------4-444-444-444-444-444------------------------|

VERSE (Verse flows in the Outro)

Outro
    hahahahahaha....FEEL THE FIIIIREEEEEEEEE........
G|---666666666666------------------------------------------------------------|
D|---------------------------------------------------------------------------|
A|---------------------4----7--6--4----7--9--4----7--6--4--7-6-4-9-7-6-------|
E|---------------------------------------------------------------------------|

G|--4h6666666--4h666-4h666-4h666-4h666-6-6-6-444-----------------------------|
D|-----------------------------------------------777-666-4-------------------|
A|---------------------------------------------------------7-4---------------|
E|---------------------------------------------------------------------------|

thats it... listen to the song when you play, then you will rule it! :)

| /  slide up
| \  slide down
| h  hammer-on
| p  pull-off
| ~  vibrato
| +  harmonic
| x  Mute note
===============================================================================

            
            
Suggest correction
Creating personal tab
Creating personal tab
You can edit any tab online and save it as your Personal.

You can edit, replace or remove any tab part or add personal notes – all changes will be seen only by you.

Personal tabs can be accessed anytime from any device, even offline.
Learn more »
Give kudos to tab author, rate the tab!
1 2 3 4 5
comments
print report bad tab
guest
You may want to rate the tab now too:
select rating
Wanna post a correction for this tab? Suggest correction