Oops, an error
Loading. Please wait.

Necroshine bass

version 1
version 1

Whole song

Interactive

1,949 views 1 this week
no commentswrite comment
1 2 3 4 5
3 more votes to show rating
add to favorites
×
Save as Personal and add changes to this tab that will be seen only by you. Learn more ›
×
You can save this tab as Personal to edit and correct it or add notes. All changes will be seen only by you. Learn more »
launch autoscroll
font size
0
reset
guitar tuner
edit
Autoscroll
slow
fast
+/-
esc
set tempo
stop
----------------------------------------------------------------------------
			     NECROSHINE - Overkill
----------------------------------------------------------------------------

Tabbed By : Death A La Mode
Played by : D.D. Verni
Overkill rocks hot, pasty ass!
Tuning: DCGF

Intro 1 (x4)
F|----------------|
G|----------------|
C|----------------|
D|0--0---0--0--0--|    

Intro 2 (x6)
F|----------------|----------------|----------------|----------------|
G|----------------|----------------|----------------|----------------|
C|----------------|----------------|----------------|----------------|
D|0-0-0-0-0-0-0-0-|0-0-0-0-0-0-0-0-|0-0-0-0-0-0-0-0-|0-0-0-0-0-0-0-0-|
 |                                                                   |
F|----------------|----------------|----------------|----------------|
G|----------------|----------------|----------------|----------------|
C|-7----6----5----|----------------|----------------|----------------|
D|----------------|-7----6----5-0--|--0-0-0-0-0-0-0-|0-0-0-0-0-0-0-0-|

Intro 3 (x1)
F|----------------|----------------|----------------|----------------|
G|----------------|----------------|----------------|----------------|
C|-7----6----5----|----------------|-7----6----5----|----------------|
D|----------------|-7----6----5----|----------------|-7----6----5----|
 |                                                                   |
F|----------------|----------------|----------------|----------------|
G|----------------|----------------|----------------|----------------|
C|-7----6----5----|----------------|----------------|-----------7----|
D|----------------|-7----6----5----|-0----3----5----|-6----7---------|
 |                |
F|----------------|
G|----------------|
C|----------------|
D|-6h7p6h7p6h7p6--|

Main Riff 1 (x2)
F|----------------|----------------|----------------|----------------|
G|----------------|----------------|----------------|----------------|
C|----------------|----------------|----------------|----------------|
D|0-0---0-1-0---0-|0-0---0-1-0---0-|0-0---0-1-0---0-|0-0---0-5---6---|
 |                                                                   |
F|----------------|----------------|----------------|----------------|
G|----------------|----------------|----------------|----------------|
C|----------------|----------------|----------------|----------------|
D|0-0---0-1-0---0-|0-0---0-1-0---0-|0-0---0-1-0---0-|1-0-0-1-0-0-1-0-|

(rest while Guitar plays harmonics for verse)

After the verse you play this under Bobby's shrieks.
F|----------------|----------------|
G|----------------|----------------|
C|----------------|----------------|
D|0---0---0-0---0-|--0---0-0-0-0---|

Main Riff 1 (x1)

Pre-Chorus Riff (x1)
F|----------------|----------------|----------------|-----------------|
G|----------------|----------------|----------------|-----------------|
C|----------------|----------------|----------------|-----------------|
D|0---2-3-0-2-3-0-|----2-3-0-2-3-0-|----2-3-0-2-3-0-|--2-3-0-2-3-4----|
 |                                                                    |
F|----------------|----------------|----------------|-----------------|
G|----------------|----------------|----------------|-----------------|
C|----------------|----------------|----------------|-----------------|
D|0---2-3-0-2-3-0-|----2-3-0-2-3-0-|----2-3-0-2-3---|--0--------------|

Chorus (x1)
F|----------------|----------------|----------------|-----------------|
G|----------------|----------------|----------------|-----------------|
C|----------------|----------------|----------------|-----------------|
D|0---2-3-0-2-3-0-|----2-3-0-2-3-0-|----2-3-0-2-3-0-|--2-3-0-2-3-4----|
 |                                                                    |
F|----------------|----------------|----------------|-----------------|
G|----------------|----------------|----------------|-----------------|
C|----------------|----------------|----------------|-----------------|
D|0---2-3-0-2-3-0-|----2-3-0-2-3-0-|----2-3-0-2-3-0-|--2-3-0-2-3-4----|

Main Riff (x2)
Rest for Verse
Bobby shrieking again
Main Riff (x1)
Rest for Verse
Bobby shrieking again
Main Riff (x1)
Pre-Chorus (x1)
Chorus (x1)

Fill type thing(x1)
F|----------------|----------------|----------------|-----------------|
G|----------------|----------------|----------------|-----------------|
C|----------------|-7----6----5----|----------------|-----------------|
D|-0--------------|----------------|-7----6-----5---|-0---------------|

F|----------------|----------------|----------------|-----------------|
G|----------------|----------------|----------------|-----------------|
C|----------------|----------------|----------------|-----------------|
D|-0--------------|-0--------------|----------------|---------0-0-0-0-|

F|----------------|----------------|----------------|-----------------|
G|----------------|----------------|----------------|-----------------|
C|----------------|----------------|----------------|-----------------|
D|-0--------------|----------------|------------0-0-|0-0---0-0-0--0-0-|

Bridge-like riff thing (x4)
F|----------------|----------------|----------------|-----------------|
G|----------------|----------------|----------------|-----------------|
C|----------------|----------------|----------------|-----------------|
D|0-3---0-3---0-3-|--0-3-----------|0-3---0-3---0-3-|--0-3----0-0-0-0-|

Other Riff (x2)
F|----------------|----------------|----------------|-----------------|
G|----------------|----------------|----------------|-----------------|
C|----7-----------|----------------|----7-----------|-----------------|
D|0-0-----6---0-5-|--0-0-0-0-0-0-0-|0-0-----6---0-5-|--0-0-0-0-0-3----|

Bridge thing (x2)
Other Riff (x2)
Bridge thing (x4)

Main Riff 2 (x1)
F|----------------|----------------|----------------|----------------|
G|----------------|----------------|----------------|----------------|
C|----------------|----------------|----------------|----------------|
D|----------------|----------------|----------------|--------5---6---|
 |                                                                   |
F|----------------|----------------|----------------|----------------|
G|----------------|----------------|----------------|----------------|
C|----------------|----------------|----------------|----------------|
D|----------------|----------------|----------------|1-0-0-1-0-0-1-0-|

Main Riff 1 (x2)

Last Riff (x1)
F|----------------|----------------|
G|----------------|----------------|
C|----------------|----------------|
D|-0---0---0---0--|0---------------|


| /  slide up
| \  slide down
| h  hammer-on
| p  pull-off
| ~  vibrato
| +  harmonic
| x  Mute note

Lyrics:

You can take me out of my hell
You can't take my hell on out of me
Watch me here as I gel
But be carefull what you see

I cut across the waves
Some live and some enshrined
I look into the light
Of the Necroshine

Don't you worry about me
You know I'm doing fine
Basking in the light
Of the Necroshine

In the name of all that's sacred
In the name of misery
Watch me here as I turn red
And remember what you see

I hunger for the taste
To fill my glass with wine
Away from the right
Into the Necroshine

Don't you ever doubt me
As you walk the line
Guided by the light
Of the Necroshine

I think that I have been reborn
Just a little better than before
I think I tried to tell myself
That I needed just a little more

They always tried to sell me
Hang me what I couldn't use
Always tried to get a little better
With an offer that I can't refuse

You can take me full of fire
You can take me as you find
Or you can leave me here
Where you gonna see me
Guided by the Necroshine
Necroshine
Necroshine
Necroshine

Don't you worry about me
You know I'm doing fine
Basking in the light
Of the Necroshine

Don't you ever doubt me
As you walk the line
Guided by the light
Guided by the light
Of the Necroshine

===============================================================================
Suggest correction
Creating personal tab
Creating personal tab
You can edit any tab online and save it as your Personal.

You can edit, replace or remove any tab part or add personal notes – all changes will be seen only by you.

Personal tabs can be accessed anytime from any device, even offline.
Learn more »
Give kudos to tab author, rate the tab!
1 2 3 4 5
comments
print report bad tab
guest
You may want to rate the tab now too:
select rating
Wanna post a correction for this tab? Suggest correction