Oops, an error
Loading. Please wait.

Stone Cold Jesus Tab

642 views 1 this week
1 commentread comment
1 2 3 4 5
2 more votes to show rating
add to favorites
launch autoscroll
font size
0
reset
how to read this tab
guitar tuner
×
Best way to learn
"Stone Cold Jesus"
Autoscroll
slow
fast
+/-
esc
set tempo
stop
Standard tunning  e-B-G-D-A-E

b-slight bend

^-full step bend

^^-hold bend

v-hit note in bend and release

.-muting


e|--------------------------------------|
B|--------------------------------------|
G|--------------------------------------|
D|------5b----^^^v---------^^^v-------2-|
A|0-0-0-3-0-0-5  5-3-5-3-0-5  5-3-5-3-0-|
E|--------------------------------------|
  .....   ...            .


probably isn't %100 percent correct because I learned the riff in one go thru
but sounds real close.
Suggest correction
Give kudos to tab author, rate the tab!
1 2 3 4 5
comments
print report bad tab
1 comment total.
0 reply
kingaustink 47 Feb 03, 2010 10:02 AM

the song actually goes.

e------------------------
B------------------------
G------------------------
D--22--------------------
A--22--------------------
E--00-0-3-5-3-5h6-5-3-0--

e-----------------
B-----------------
G-----------------
D--22---------8\--
A--22---------8\--
E--00-0-3-5-3-6\--

e--------------------------
B--------------------------
G--------------------------
D--22-------------22----4--
A--22-------------22----4--
E--00-0-3-5-3-5h6-00-2--2--

\: slide down

thats the intro. listen to the song get the rhythm.

guest
You may want to rate the tab now too:
select rating
Wanna post a correction for this tab? Suggest correction