Oops, an error
Loading. Please wait.

Blue Baby tab

by Ovlov
484 views 6 this week
1 commentread comment
1 2 3 4 5
2 more votes to show rating
add to favorites
×
Save as Personal and add changes to this tab that will be seen only by you. Learn more ›
×
You can save this tab as Personal to edit and correct it or add notes. All changes will be seen only by you. Learn more »
launch autoscroll
font size
0
reset
how to read this tab
guitar tuner
edit
Autoscroll
slow
fast
+/-
esc
set tempo
stop
All chords are strummed down (more than one time for each chord)


Intro

e--------------------------------------------------------------
B--------------------------------------------------------------
G-----6-4---6-4----6---7---6-----6-4--------4--------4---------
D---4-----4-----4--------------4-----4--7--------7--------4----
A--------------------------------------------------------------
D-0-----------------(0)-(0)--5------------(5)-(5)--(5)-(5)-----

Intro (2)

e---------------------4----------------------------------------
B--------------------------------------------------------------
G-13--11-9--11--7--6--6--9--7--6--11--6--4--7--9---------------
D--------------------------------------------------------------
A-11--9--7--9---5--4--4--7--5--4--9---4--2--5--7---------------
D-0---0--0--0---0--0--0--0--0--0--0---0--0--0--0---------------

Verse

   'Blue...Baby', and so on
e----0----------------------------------------------------------
B----0----------------------------------------------------------
G----4----------------------------------------------------------
D----4-------4--------------------------------------------------
A----2-------0--------------------------------------------------
D------------0--------------------------------------------------

Chorus

e---------------------------------------------------------------
B---------------------------------------------------------------
G------4--------------------------------------------------------
D--5---4---2---5------------------------------------------------
A--5---2---2---5------------------------------------------------
D--5-------2---5------------------------------------------------

            
            
Suggest correction
Creating personal tab
Creating personal tab
You can edit any tab online and save it as your Personal.

You can edit, replace or remove any tab part or add personal notes – all changes will be seen only by you.

Personal tabs can be accessed anytime from any device, even offline.
Learn more »
Give kudos to tab author, rate the tab!
1 2 3 4 5
comments
print report bad tab
1 comment total.
0 reply
weino523 4,066 Aug 21, 2016 06:29 PM

you watched it
saw the truth of austin
luke, old friend,
know we could have offed them

you watched them
forgot your way to be
you soften
and on your way you see

blue baby,
grab the phone to save me
fear that maybe
soon we'll grow up shady

my lady,
you save up half the time
delay me
don't say we have the time

guest
You may want to rate the tab now too:
select rating
Wanna post a correction for this tab? Suggest correction