Oops, an error
Loading. Please wait.

The Great Alligator tab

by Ovlov
458 views 9 this week
no commentswrite comment
1 2 3 4 5
2 more votes to show rating
add to favorites
×
Save as Personal and add changes to this tab that will be seen only by you. Learn more ›
×
You can save this tab as Personal to edit and correct it or add notes. All changes will be seen only by you. Learn more »
launch autoscroll
font size
0
reset
how to read this tab
guitar tuner
edit
Autoscroll
slow
fast
+/-
esc
set tempo
stop
Author
Difficulty
-------------------------------------------------------------------------------
                        The Great Alligator - Ovlov
-------------------------------------------------------------------------------

Tuning: Standard

verse:
e|--0--0--0-0-0--0--------0--------------------------------------------------|
B|--3--3--3-3-3--2-----------------------------------------------------------|
G|--2--2--2-2-2--2--2--4-----4--4--4-4-4--4--2--4--2-------------------------|
D|--0--0--0-0-0--0-----------4--4--4-4-4--4----------------------------------|
A|---------------------------2--2--2-2-2--2----------------------------------|
E|---------------------------------------------------------------------------|

chorus:
e|--0-0-0-0---------------------------------0-0-0-0--------------------------|
B|--3-3-3-3---------------------------------3-3-3-3--------------------------|
G|--2-2-2-2-2-2-2-2---------2-2-2-2---------2-2-2-2--------------------------|
D|--0-0-0-0-2-2-2-2-5-5-5-5-2-2-2-2-5-5-5-5-0-0-0-0-5-5-5-5-7-7-7-7----------|
A|----------0-0-0-0-5-5-5-5-0-0-0-0-5-5-5-5---------5-5-5-5-7-7-7-7----------|
E|------------------3-3-3-3---------3-3-3-3---------3-3-3-3-5-5-5-5----------|

e|--------------0-0-0-0-0-0--------------------------------------------------|
B|--------------3-3-3-3-3-3--------------------------------------------------|
G|--------------2-2-2-2-2-2--------------------------------------------------|
D|--2-2-2-2-2-2-0-0-0-0-0-0-5-5-5-5-5-5-7-7-7-7-7-7--------------------------|
A|--2-2-2-2-2-2-------------5-5-5-5-5-5-7-7-7-7-7-7--------------------------| 3x
E|--0-0-0-0-0-0-------------3-3-3-3-3-3-5-5-5-5-5-5--------------------------|

Beginning of the solo:

e|---------------------------------------------------------------------------|
B|---------------------------------------------------------------------------|
G|--9-----------9--6-----------6---------------9--6--------------------------|
D|--------7--9-----------7--9-----9------7--9--------------------------------|
A|---------------------------------------------------------------------------|
E|---------------------------------------------------------------------------|

lyrics:

here 
we're on our way 
be there today 
and there we'll stay 
fear 
you understand 
i made the sand 
bury your hand 

take time 
almost that you are 
made fine 
selma where you are 

wait a while for you 
gator gall for 2 
and i feel the red eye 

please 
don't sing this wrong 
this is your song 
don't think too long 
we're 
already fine 
so take your time 
it's clear your mine 

take time 
almost that you are 
made fine 
selma where you are 

take a mile in 2 
gator crawls to you 
and i feel the red eye 
you need the oak wine 
a meal for old time

            
            
Suggest correction
Creating personal tab
Creating personal tab
You can edit any tab online and save it as your Personal.

You can edit, replace or remove any tab part or add personal notes – all changes will be seen only by you.

Personal tabs can be accessed anytime from any device, even offline.
Learn more »
Give kudos to tab author, rate the tab!
1 2 3 4 5
comments
print report bad tab
guest
You may want to rate the tab now too:
select rating
Wanna post a correction for this tab? Suggest correction