Oops, an error
Loading. Please wait.

The Great Ohmu tab

by Ovlov
67 views 1 this week
no commentswrite comment
1 2 3 4 5
3 more votes to show rating
add to favorites
×
Save as Personal and add changes to this tab that will be seen only by you. Learn more ›
×
You can save this tab as Personal to edit and correct it or add notes. All changes will be seen only by you. Learn more »
launch autoscroll
font size
0
reset
how to read this tab
guitar tuner
edit
Autoscroll
slow
fast
+/-
esc
set tempo
stop
Author
[Intro]

e|---------------------------------------------------------------------------|
B|---------0--------0--------0--------0--------------------------------------|
G|-----0--------0--------0--------0------------------------------------------|
D|-------2--------2--------2--------2----------------------------------------|
A|--0--------0--------3--------3---------------------------------------------|
E|---------------------------------------------------------------------------|

[Verse]

e|-------------------------------------------------------------------------------|
B|-------------------------------------------------------------------------------|
G|---------0--------0--------0--------0--------0--------0--------0--------0h2p0--|
D|--2--0-----2--0-----2--0-----2--0-----2--0-----2--0-----2--0-----2--0----------|
A|-------2--------2--------2--------2--------2--------2--------2--------2--------|
E|-------------------------------------------------------------------------------|

           You could be somebody's home          shield them from winter

e|-------------------------------------------------------------------------------|
B|---------0--------0--------0--------0------------------------------------------|
G|--2--0-----2--0-----2--0-----2--0------------0--------0--------0--------0h2p0--|
D|-------2--------2--------2--------2---2--0-----2--0-----2--0-----2--0----------|
A|-------------------------------------------2--------2--------2--------2--------|
E|-------------------------------------------------------------------------------|

   Oooooooooooooh               you could be wrong

e|-------------------------------------------------------------------------------|
B|-------------------------------------------------------------------------------|
G|---------0--------0--------0--------0--------0--------0--------0--------0h2p0--|
D|--2--0-----2--0-----2--0-----2--0-----2--0-----2--0-----2--0-----2--0----------|
A|-------2--------2--------2--------2--------2--------2--------2--------2--------|
E|-------------------------------------------------------------------------------|

           you should be someone to know         the weather will change you

e|-------------------------------------------------------------------------------|
B|---------0--------0--------0--------0------------------------------------------|
G|--2--0-----2--0-----2--0-----2--0------------0--------0--------0--------0h2p0--|
D|-------2--------2--------2--------2---2--0-----2--0-----2--0-----2--0----------|
A|-------------------------------------------2--------2--------2--------2--------|
E|-------------------------------------------------------------------------------|

   Oooooooooooooh               you should be wrong

[Chorus]

e|---------------------------------------------------------------------------|
B|--3-3-3-3-3-3-1-1-1-1-1-1--------------------------------------------------|
G|--4-4-4-4-4-4-2-2-2-2-2-2--------------------------------------------------|
D|--4-4-4-4-4-4-2-2-2-2-2-2--------------------------------------------------|
A|--2-2-2-2-2-2--------------------------------------------------------------|
E|---------------------------------------------------------------------------|

    Go and take through your filter only to

e|---------------------------------------------------------------------------|
B|---------------------------------------------------------------------------|
G|---------0--------0--------0--------0h2p0----------------------------------|
D|--2--0-----2--0-----2--0-----2--0------------------------------------------|
A|-------2--------2--------2--------2----------------------------------------|
E|---------------------------------------------------------------------------|

    roam

e|---------------------------------------------------------------------------|
B|--3-3-3-3-3-3-1-1-1-1-1-1--------------------------------------------------|
G|--4-4-4-4-4-4-2-2-2-2-2-2--------------------------------------------------|
D|--4-4-4-4-4-4-2-2-2-2-2-2--------------------------------------------------|
A|--2-2-2-2-2-2--------------------------------------------------------------|
E|---------------------------------------------------------------------------|

    Roam and grow in your home and do what you

e|---------------------------------------------------------------------------|
B|---------------------------------------------------------------------------|
G|---------0--------0--------0--------0h2p0----------------------------------|
D|--2--0-----2--0-----2--0-----2--0------------------------------------------|
A|-------2--------2--------2--------2----------------------------------------|
E|---------------------------------------------------------------------------|

   know

[Verse]

e|-------------------------------------------------------------------------------|
B|-------------------------------------------------------------------------------|
G|---------0--------0--------0--------0--------0--------0--------0--------0h2p0--|
D|--2--0-----2--0-----2--0-----2--0-----2--0-----2--0-----2--0-----2--0----------|
A|-------2--------2--------2--------2--------2--------2--------2--------2--------|
E|-------------------------------------------------------------------------------|

           I could be somebody's home           and teach them to linger

e|-------------------------------------------------------------------------------|
B|---------0--------0--------0--------0------------------------------------------|
G|--2--0-----2--0-----2--0-----2--0------------0--------0--------0--------0h2p0--|
D|-------2--------2--------2--------2---2--0-----2--0-----2--0-----2--0----------|
A|-------------------------------------------2--------2--------2--------2--------|
E|-------------------------------------------------------------------------------|

   Ooooooooooooon               You could be wrong               

e|-------------------------------------------------------------------------------|
B|-------------------------------------------------------------------------------|
G|---------0--------0--------0--------0--------0--------0--------0--------0h2p0--|
D|--2--0-----2--0-----2--0-----2--0-----2--0-----2--0-----2--0-----2--0----------|
A|-------2--------2--------2--------2--------2--------2--------2--------2--------|
E|-------------------------------------------------------------------------------|

           Though you do often take long           to defend your ego      

e|-------------------------------------------------------------------------------|
B|---------0--------0--------0--------0------------------------------------------|
G|--2--0-----2--0-----2--0-----2--0------------0--------0--------0--------0h2p0--|
D|-------2--------2--------2--------2---2--0-----2--0-----2--0-----2--0----------|
A|-------------------------------------------2--------2--------2--------2--------|
E|-------------------------------------------------------------------------------|

       Oooooooooooooh                         you weren't wrong

[Chorus]

e|---------------------------------------------------------------------------|
B|--3-3-3-3-3-3-1-1-1-1-1-1--------------------------------------------------|
G|--4-4-4-4-4-4-2-2-2-2-2-2--------------------------------------------------|
D|--4-4-4-4-4-4-2-2-2-2-2-2--------------------------------------------------|
A|--2-2-2-2-2-2--------------------------------------------------------------|
E|---------------------------------------------------------------------------|

    Go and take through your filter only to

e|---------------------------------------------------------------------------|
B|---------------------------------------------------------------------------|
G|---------0--------0--------0--------0h2p0----------------------------------|
D|--2--0-----2--0-----2--0-----2--0------------------------------------------|
A|-------2--------2--------2--------2----------------------------------------|
E|---------------------------------------------------------------------------|

    roam

e|---------------------------------------------------------------------------|
B|--3-3-3-3-3-3-1-1-1-1-1-1--------------------------------------------------|
G|--4-4-4-4-4-4-2-2-2-2-2-2--------------------------------------------------|
D|--4-4-4-4-4-4-2-2-2-2-2-2--------------------------------------------------|
A|--2-2-2-2-2-2--------------------------------------------------------------|
E|---------------------------------------------------------------------------|

    Roam and grow in your home and do what you

e|---------------------------------------------------------------------------|
B|---------------------------------------------------------------------------|
G|---------0--------0--------0--------0h2p0----------------------------------|
D|--2--0-----2--0-----2--0-----2--0------------------------------------------|
A|-------2--------2--------2--------2----------------------------------------|
E|---------------------------------------------------------------------------|

   know

[Solo]

e|-------------------------------------------------------------------------------|
B|-------------------------------------------------------------------------------|
G|---------0--------0--------0--------0--------0--------0--------0--------0h2p0--|
D|--2--0-----2--0-----2--0-----2--0-----2--0-----2--0-----2--0-----2--0----------|
A|-------2--------2--------2--------2--------2--------2--------2--------2--------|
E|-------------------------------------------------------------------------------|

e|-------------------------------------------------------------------------------|
B|---------0--------0--------0--------0------------------------------------------|
G|--2--0-----2--0-----2--0-----2--0------------0--------0--------0--------0h2p0--|
D|-------2--------2--------2--------2---2--0-----2--0-----2--0-----2--0----------|
A|-------------------------------------------2--------2--------2--------2--------|
E|-------------------------------------------------------------------------------|

e|-------------------------------------------------------------------------------|
B|-------------------------------------------------------------------------------|
G|---------0--------0--------0--------0--------0--------0--------0--------0h2p0--|
D|--2--0-----2--0-----2--0-----2--0-----2--0-----2--0-----2--0-----2--0----------|
A|-------2--------2--------2--------2--------2--------2--------2--------2--------|
E|-------------------------------------------------------------------------------|

e|-------------------------------------------------------------------------------|
B|---------0--------0--------0--------0------------------------------------------|
G|--2--0-----2--0-----2--0-----2--0------------0--------0--------0--------0h2p0--|
D|-------2--------2--------2--------2---2--0-----2--0-----2--0-----2--0----------|
A|-------------------------------------------2--------2--------2--------2--------|
E|-------------------------------------------------------------------------------|

[Outro]

e|-------------------------------------------------------------------------------|
B|-------------------------------------------------------------------------------|
G|---------0--------0--------0--------0--------0--------0--------0--------0h2p0--|
D|--2--0-----2--0-----2--0-----2--0-----2--0-----2--0-----2--0-----2--0----------|
A|-------2--------2--------2--------2--------2--------2--------2--------2--------|
E|-------------------------------------------------------------------------------|

e|-------------------------------------------------------------------------------|
B|---------0--------0--------0--------0--------0--------0--------0--------0------|
G|-----0--------0--------0--------0--------0--------0--------0--------0----------|
D|-------2--------2--------2--------2--------2--------2--------2--------2--------|
A|-------------------------------------------------------------------------------|
E|-------------------------------------------------------------------------------|

e|-------------------------------------------------------------------------------|
B|---------0--------0--------0--------0--------0--------0--------0--------0------|
G|-----0--------0--------0--------0--------0--------0--------0--------0----------|
D|-------2--------2--------2--------2--------2--------2--------2--------2--------|
A|--------------------0--------0--------3--------3-------------------------------|
E|-------------------------------------------------------------------------------|

           I said it was you who should try    to measure your wingspan

e|-------------------------------------------------------------------------------|
B|---------0--------0--------0--------0------------------------------------------|
G|-----0--------0--------0--------0----------------------------------------------|
D|-------2--------2--------2--------2--------------------------------------------|
A|--0--------0--------3--------3-------------------------------------------------|
E|-------------------------------------------------------------------------------|

     Oooooooooooooo00000000000000oh  you could be long


************************************

| h  Hammer-on
| p  Pull-off

************************************

            
            
Suggest correction
Creating personal tab
Creating personal tab
You can edit any tab online and save it as your Personal.

You can edit, replace or remove any tab part or add personal notes – all changes will be seen only by you.

Personal tabs can be accessed anytime from any device, even offline.
Learn more »
Give kudos to tab author, rate the tab!
1 2 3 4 5
comments
print report bad tab
guest
You may want to rate the tab now too:
select rating
Wanna post a correction for this tab? Suggest correction