Oops, an error
Loading. Please wait.

A Fever tab

by Owen
3,053 views 1 this week
no commentswrite comment
1 2 3 4 5
1 last vote to show rating
add to favorites
×
Save as Personal and add changes to this tab that will be seen only by you. Learn more ›
×
You can save this tab as Personal to edit and correct it or add notes. All changes will be seen only by you. Learn more »
launch autoscroll
font size
0
reset
how to read this tab
guitar tuner
edit
Autoscroll
slow
fast
+/-
esc
set tempo
stop
Artist:  Owen  
Song:  "A Fever"
Tuning:  CGDGBD - Capo 5  (Live Version - Capo 6)
Tab by Joel


Verse 1:
D---------------------------------------------------------------------------------|
B---------------------------------------------------------------------------------|
G-----------0------------------------------0--------------------------------------|
D----------x-4p0----------------------------4p0--------0--------------------------| 1x
G----0----x--------2---2h4p2---0-----0------------4---4----0----------------------|
C----0---x---------2----------6------0---x--------4-------6-----------------------|

D---------------------------------------------------------------------------------|
B---------------------------------------------------------------------------------|
G----------0------------------------0---------------------------------------------|
D-----------4p0-------------------------------------------------------------------| 1x
G----0------------2---2h4p2--0--------4--2h4p2p0--2--0h2h4------------------------|
C----0---x--------2---------6-----4---------------2-------------------------------|

D---------------------------------------------------------------------------------|
B---------------------------------------------------------------------------------|
G-------------0------------------------------0------------------------------------|
D------------x-4p0----------------------------4p0-----------0---------------------| 1x
G----0------x--------2---2h4p2---0-----0------------4--0h2h4----------------------|
C----0--x--x---------2----------6------0---x--------4---------6/7-----------------|

D---------------------------------------------------------------------------------|
B---------------------------------------------------------------------------------|
G----------0------------------------0---------------------------------------------|
D-----------4p0-------------------------------------------------------------------| 1x 
G----0------------2---2h4p2--0--------4--2h4p2p0--2--0h2h4------------------------|
C----0---x--------2---------6-----4---------------2-------------------------------|


Post-Verse/Pre-Chorus:
D--------0----------------------0-------------------------------------------------|
B-----------0----------------------0----------------------------------------------|
G----------2--------0-0-----------2--------0--------------------------------------|
D------0-----------0-4-0------0-----------0-4-0-----------------------------------| 1x
G--------------------------------------------4------------------------------------|
C----0-----------2----------0-----------4-----------------------------------------|

D--------0------------------------------------------------------------------------|
B-----------0---------------------------------------------------------------------|
G----------2--------0-0-------0---------------------------------------------------|
D------0-----------0-4-0----------------------------------------------------------| 1x
G---------------------------4---4--2h4p2p0--2--0h2h4------------------------------|
C----0-----------2----------4---------------2-------------------------------------|


Verse 2: (Same as Verse 1)
D---------------------------------------------------------------------------------|
B---------------------------------------------------------------------------------|
G-----------0------------------------------0--------------------------------------|
D----------x-4p0----------------------------4p0--------0--------------------------| 1x
G----0----x--------2---2h4p2---0-----0------------4---4----0----------------------|
C----0---x---------2----------6------0---x--------4-------6-----------------------|

D---------------------------------------------------------------------------------|
B---------------------------------------------------------------------------------|
G----------0------------------------0---------------------------------------------|
D-----------4p0-------------------------------------------------------------------| 1x
G----0------------2---2h4p2--0--------4--2h4p2p0--2--0h2h4------------------------|
C----0---x--------2---------6-----4---------------2-------------------------------|

D---------------------------------------------------------------------------------|
B---------------------------------------------------------------------------------|
G-------------0------------------------------0------------------------------------|
D------------x-4p0----------------------------4p0-----------0---------------------| 1x
G----0------x--------2---2h4p2---0-----0------------4--0h2h4----------------------|
C----0--x--x---------2----------6------0---x--------4---------6/7-----------------|

D---------------------------------------------------------------------------------|
B---------------------------------------------------------------------------------|
G----------0------------------------0---------------------------------------------|
D-----------4p0-------------------------------------------------------------------| 1x 
G----0------------2---2h4p2--0--------4--2h4p2p0--2--0h2h4------------------------|
C----0---x--------2---------6-----4---------------2-------------------------------|


Post-Verse/Pre-Chorus 2:
D--------0----------------------0-------------------------------------------------|
B-----------0----------------------0----------------------------------------------|
G----------2--------0-0-----------2--------0--------------------------------------|
D------0-----------0-4-0------0-----------0-4-0-----------------------------------| 1x
G--------------------------------------------4------------------------------------|
C----0-----------2----------0-----------4-----------------------------------------|

D--------0------------------------------------------------------------------------|
B-----------0---------------------------------------------------------------------|
G----------2--------0-0-------0---------------------------------------------------|
D------0-----------0-4-0----------------------------------------------------------| 1x
G---------------------------4---4--2h4p2p0--2--0h2h4------------------------------|
C----0-----------2----------4---------------2-------------------------------------|

D--------0----------------------0-------------------------------------------------|
B-----------0----------------------0----------------------------------------------|
G----------2--------0-0-----------2--------0--------------------------------------|
D------0-----------0-4-0------0-----------0-4-0-----------------------------------| 1x
G--------------------------------------------4------------------------------------|
C----0-----------2----------4-----------6-----------------------------------------|

D--------0------------------------------------------------------------------------|
B-----------0------------------------------------------------0--------------------|
G----------2--------0-0-------0-----------------------------0-2-------------------|
D------0-----------0-4-0----------------------------------------------------------| 1x
G---------------------------4---4--2h4p2p0--2--0h2h4------5-----------------------|
C----0-----------2----------4---------------2------------5------------------------|


Chorus: ("I've been sick before...")
D----------0-------------------0--------------------------------------------------|
B----------0-------0-----------0--------0-----------------------------------------|
G----0---0--------0-2----0---0---------0-2----------------------------------------|
D------4---------0---------4----------0-------------------------------------------| 2x
G---------------0-----------------------------------------------------------------|
C----0-------------------2----------4---------------------------------------------|


Verse 3:
D---------------------------------------------------------------------------------|
B---------------------------------------------------------------------------------|
G-------------0------------------------------0------------------------------------|
D------------x-4p0----------------------------4p0-----------0---------------------| 1x
G----0------x--------2---2h4p2---0-----0------------4--0h2h4----------------------|
C----0--x--x---------2----------6------0---x--------4---------6/7-----------------|

D---------------------------------------------------------------------------------|
B---------------------------------------------------------------------------------|
G----------0------------------------0---------------------------------------------|
D-----------4p0-------------------------------------------------------------------| 1x 
G----0------------2---2h4p2--0--------4--2h4p2p0--2--0h2h4------------------------|
C----0---x--------2---------6-----4---------------2-------------------------------|

D---------------------------------------------------------------------------------|
B---------------------------------------------------------------------------------|
G-----------0------------------------------0--------------------------------------|
D----------x-4p0----------------------------4p0--------0--------------------------| 1x
G----0----x--------2---2h4p2---0-----0------------4---4----0----------------------|
C----0---x---------2----------6------0---x--------4-------6-----------------------|

D---------------------------------------------------------------------------------|
B---------------------------------------------------------------------------------|
G----------0------------------------0---------------------------------------------|
D-----------4p0-------------------------------------------------------------------| 1x
G----0------------2---2h4p2--0--------4--2h4p2p0--2--0h2h4------------------------|
C----0---x--------2---------6-----4---------------2-------------------------------|

D---------------------------------------------------------------------------------|
B---------------------------------------------------------------------------------|
G-------------0------------------------------0------------------------------------|
D------------x-4p0----------------------------4p0-----------0---------------------| 1x
G----0------x--------2---2h4p2---0-----0------------4--0h2h4----------------------|
C----0--x--x---------2----------6------0---x--------4---------6/7-----------------|

D---------------------------------------------------------------------------------|
B------------------------------------------------------------------0--------------|
G----------0------------------------0-----------------------------0-2-------------|
D-----------4p0-------------------------------------------------------------------| 1x 
G----0------------2---2h4p2--0--------4--2h4p2p0--2--0h2h4------5-----------------|
C----0---x--------2---------6-----4---------------2------------5------------------|


Chorus 2: ("Bed ridden...")
D----------0-------------------0--------------------------------------------------|
B----------0-------0-----------0--------0-----------------------------------------|
G----0---0--------0-2----0---0---------0-2----------------------------------------|
D------4---------0---------4----------0-------------------------------------------| 4x
G---------------0-----------------------------------------------------------------|
C----0-------------------2----------4---------------------------------------------|


Post-Chorus/Outro: ("I'll make my way back...")
D----------0----------------------------------------------------------------------|
B----------0---------------------0------------------------------------------------|
G----0---0---------0-------------0-------0----------------------------------------|
D------4----------4-4-0----2p0h2--------4-4-0-------------------------------------| 3x
G----------------4---4-----------------4---4--------------------------------------|
C----0----------2----------4----------2-------------------------------------------|

D----------0----------------------------------------------------------------------|
B----------0---------------------0------------------------------------------------|
G----0---0---------0-------------0------------------------------------------------|
D------4----------4-4-0----2p0h2------0-------------------------------------------| 1x
G----------------4---4----------------2-------------------------------------------|
C----0----------2----------4------------------------------------------------------|


            
            
Suggest correction
Creating personal tab
Creating personal tab
You can edit any tab online and save it as your Personal.

You can edit, replace or remove any tab part or add personal notes – all changes will be seen only by you.

Personal tabs can be accessed anytime from any device, even offline.
Learn more »
Give kudos to tab author, rate the tab!
1 2 3 4 5
comments
print report bad tab
guest
Wanna post a correction for this tab? Suggest correction