Oops, an error
Loading. Please wait.

An Animal tab

by Owen
112 views 6 this week
no commentswrite comment
1 2 3 4 5
3 more votes to show rating
add to favorites
×
Save as Personal and add changes to this tab that will be seen only by you. Learn more ›
×
You can save this tab as Personal to edit and correct it or add notes. All changes will be seen only by you. Learn more »
launch autoscroll
font size
0
reset
how to read this tab
guitar tuner
edit
Autoscroll
slow
fast
+/-
esc
set tempo
stop
Tuning: EADGAD from low to high.
Capo: 4th fret.

I have tried to make the tab consistent with the timing of the song. The first section of the song
is in 7/8, and the coda is in 4/4. A space of two dashes (--) between notes indicates an 
eighth note. I left two dashes at beginning and end of each bar to make the tab easier to
read. You'll have to listen to the song to get the timing exact, however.

Fret numbers are relative to the capo.

[Intro/Verse]

D|-------------------------|-------------------------|
A|-----------------3-------|-----------------3-------|
G|-----------3-------------|-----------3-------------|
D|--------0----------------|--------0----------------|
A|-------------------------|-------------------------|
E|-/3-----------3----------|--3-----------3----------|


D|-------------------------|-------------------------|-------------------------|
A|-----------------3-------|-----------------3-------|-----------------3-------|
G|-----------3--------3----|-----------3-------------|-----------2-------------|
D|--------0----------------|--------0----------------|--------0----------------|
A|-------------------------|-------------------------|-------------------------|
E|--3-----------3----------|--3-----------3----------|--1-----------1----------|


D|-------------------------|-------------------------|--------------------0----|
A|-----------------3-------|-----------------3-------|-----------------3-------|
G|-----------2-------------|-----------2-------------|-----------2-------------|
D|--------0----------------|--------0----------------|--------0----------------|
A|-------------------------|-------------------------|-------------------------|
E|--1-----------1----------|--1-----------1----------|--1-----------1----------|


D|-------------------------|-------------------------|-------------------------|
A|-----------------3-------|-----------------3-------|-----------------3-------|
G|-----------3--------3----|-----------3-------------|-----------3--------3----|
D|--------0----------------|--------0----------------|--------0----------------|
A|-------------------------|-------------------------|-------------------------|
E|--3-----------3----------|--3-----------3----------|--3-----------3----------|


D|-------------------------|-------------------------|-------------------------|
A|-----------------3-------|-----------------3-------|-----------------3-------|
G|-----------3-------------|-----------2-------------|-----------2-------------|
D|--------0----------------|--------0----------------|--------0-----------0----|
A|-------------------------|-------------------------|-------------------------|
E|--3-----------3----------|--1-----------1----------|--1-----------1----------|


D|-------------------------|--------------------0----|
A|-----------------3-------|-----------------3-------|
G|-----------2-------------|-----------2-------------|
D|--------0----------------|--------0----------------|
A|-------------------------|-------------------------|
E|--1-----------1----------|--1-----------1----------|

[Verse] - Repeat x4

D|-------------------------|-------------------------|-------------------------|
A|-----------------3-------|-----------------0-------|-----------------3-------|
G|-----------3--------3----|-----------3--------3----|-----------3--------3----|
D|--------0----------------|--------0----------------|--------0----------------|
A|-------------------------|-------------------------|-------------------------|
E|--3-----------3----------|--3-----------3----------|--3-----------3----------|


D|-------------------------|-------------------------|-------------------------|
A|-----------------3-------|-----------------3-------|-----------------3-------|
G|-----------3-------------|-----------2-------------|-----------2-------------|
D|--------0----------------|--------0----------------|--------0-----------0----|
A|-------------------------|-------------------------|-------------------------|
E|--3-----------3----------|--1-----------1----------|--1-----------1----------|


D|-------------------------|--------------------0---|
A|-----------------3-------|-----------------3------|
G|-----------2-------------|-----------2------------|
D|--------0----------------|--------0---------------|
A|-------------------------|------------------------|
E|--1-----------1----------|--1-----------1---------|

[Chorus] - Repeat x2

D|-------------------------|-------------------------|
A|-----------------3-------|-----------------3-------|
G|-----------3--------3----|-----------3-------------|
D|--------0----------------|--------0----------------|
A|-------------------------|-------------------------|
E|--3-----------3----------|--3-----------3----------|

D|-----0-------------------|-------------------------|-------------------------|
A|-----------------3-------|-----------------0-------|-----------------3-------|
G|-----------3--------3----|-----------3--------3----|-----------3--------3----|
D|--------1----------------|--------1----------------|--------2----------------|
A|-------------------------|-------------------------|-------------------------|
E|--3-----------3----------|--3-----------3----------|--3-----------3----------|


D|-------------------------|-------------------------|------------------------|
A|-----------------3-------|-----------------3-------|-----------------0------|
G|-----------3-------------|-----------3--------3----|-----------3--------3---| 
D|--------2----------------|--------1----------------|--------1---------------|
A|-------------------------|-------------------------|------------------------|
E|--3-----------3----------|--3-----------3----------|--3-----------3---------|

[Verse]

D|-------------------------|-------------------------|-------------------------|
A|-----------------3-------|-----------------3-------|-----------------3-------|
G|-----------3--------3----|-----------3-------------|-----------3--------3----|
D|--------0----------------|--------0----------------|--------0----------------|
A|-------------------------|-------------------------|-------------------------|
E|--3-----------3----------|--3-----------3----------|--3-----------3----------|


D|-------------------------|-------------------------|-------------------------|
A|-----------------3-------|-----------------3-------|-----------------3-------|
G|-----------3-------------|-----------2-------------|-----------2--------2----|
D|--------0----------------|--------0----------------|--------0----------------|
A|-------------------------|-------------------------|-------------------------|
E|--3-----------3----------|--1-----------1----------|--1-----------1----------|


D|-------------------------|--------------------0----|-------------------------|
A|-----------------3-------|-----------------3-------|-----------------3-------|
G|-----------2-------------|-----------2-------------|-----------3--------3----|
D|--------0----------------|--------0----------------|--------0----------------|
A|-------------------------|-------------------------|-------------------------|
E|--1-----------1----------|--1-----------1----------|--3-----------3----------|


D|-------------------------|-------------------------|-------------------------|
A|-----------------0-------|-----------------3-------|-----------------3-------|
G|-----------3--------3----|-----------3--------3----|-----------3-------------|
D|--------0----------------|--------0----------------|--------0----------------|
A|-------------------------|-------------------------|-------------------------|
E|--3-----------3----------|--3-----------3----------|--3-----------3----------|


D|-------------------------|-------------------------|-------------------------|
A|-----------------3-------|-----------------3-------|-----------------3-------|
G|-----------2-------------|-----------2-------------|-----------2-------------|
D|--------0----------------|--------0-----------0----|--------0----------------|
A|-------------------------|-------------------------|-------------------------|
E|--1-----------1----------|--1-----------1----------|--1-----------1----------|


D|-------------------------|
A|-----------------0-------|
G|-----------2--------0----|
D|--------0----------------|
A|-------------------------|
E|--1-----------1----------|

[Chorus]

[Part 1] - Repeat x2

D|-------------------------|-------------------------|
A|-----------------3-------|-----------------3-------|
G|-----------3--------3----|-----------3-------------|
D|--------0----------------|--------0----------------|
A|-------------------------|-------------------------|
E|--3-----------3----------|--3-----------3----------|

D|-----0-------------------|-------------------------|-------------------------|
A|-----------------3-------|-----------------0-------|-----------------3-------|
G|-----------3--------3----|-----------3--------3----|-----------3--------3----|
D|--------1----------------|--------1----------------|--------2----------------|
A|-------------------------|-------------------------|-------------------------|
E|--3-----------3----------|--3-----------3----------|--3-----------3----------|


D|-------------------------|-------------------------|------------------------|
A|-----------------3-------|-----------------3-------|-----------------0------|
G|-----------3-------------|-----------3--------3----|-----------3--------3---|
D|--------2----------------|--------1----------------|--------1---------------|
A|-------------------------|-------------------------|------------------------|
E|--3-----------3----------|--3-----------3----------|--3-----------3---------|

[Part 2]

D|-------------------------|-------------------------|
A|-----------------3-------|-----------------3-------|
G|-----------3--------3----|-----------3-------------|
D|--------0----------------|--------0----------------|
A|-------------------------|-------------------------|
E|--3-----------3----------|--3-----------3----------|


D|-------------------------|-------------------------|
A|-----------------3-------|-----------------3-------|
G|-----------3--------3----|-----------3-------------|
D|--------0----------------|--------0----------------|
A|-------------------------|-------------------------|
E|--3-----------3----------|--3-----------3----------|

[Coda]
Note that this section is in 4/4, unlike the rest of the song, which is in 7/8.

[Part 1] - Repeat x3

D|----------------------------|----------------------------|----------------------------|
A|-----------------0----------|-----------------0----------|-----------------0----------|
G|-----------3-----------3----|-----------3----------------|-----------3-----------0----|
D|--------3-----------3-------|--------3-----------3-------|--------0-------------------|
A|--1-----------1-------------|----------------------------|----------------------------|
E|----------------------------|--1-----------1-------------|--3-----------3-------------|


D|-----------3----------------|-----------------------0----|----------------------------|
A|--------3-----3-----3-------|-----------3----------------|-----------3----------------|
G|-----3-----------3----------|--------3-----3-----3-------|--------3-----3-------------|
D|--3--------------------3----|-----3-----------3----------|-----3-----------3----------|
A|----------------------------|--6-------------------------|--6-----------------6--5----|
E|----------------------------|----------------------------|----------------------------|

[Part 2] - Repeat x2

D|-----------------------0----|----------------------------|-----------------------0----|
A|-----------3----------------|-----------3----------------|-----------3----------------|
G|--------3-----3-----3-------|--------3-----3-------------|--------3-----3-----3-------|
D|-----3-----------3----------|-----3-----------3-----3----|-----3-----------3----------|
A|----------------------------|--------------------5-------|--6-------------------------|
E|--3-------------------------|--5-------------------------|----------------------------|


D|---------------------------|
A|-----------3---------------|
G|--------3-----3------------|
D|-----3-----------3---------|
A|--6-----------------6--5---|
E|---------------------------|

[Part 3]

D|-----------------------0----|----------------------------|-----------------------0L---|
A|-----------3----------------|-----------3----------------|-----------3----------------|
G|--------3-----3-----3-------|--------3-----3-------------|--------3-----3-----3-------|
D|-----3-----------3----------|-----3-----------3-----3----|-----3-----------3----------|
A|----------------------------|--------------------5-------|--6-------------------------|
E|--3-------------------------|--5-------------------------|----------------------------|

D|--0-------------------------|
A|----------------------------|
G|----------------------------|
D|----------------------------|
A|----------------------------|
E|----------------------------|

************************************

| L   Tied note
| /   Slide up

************************************

            
            
Suggest correction
Creating personal tab
Creating personal tab
You can edit any tab online and save it as your Personal.

You can edit, replace or remove any tab part or add personal notes – all changes will be seen only by you.

Personal tabs can be accessed anytime from any device, even offline.
Learn more »
Give kudos to tab author, rate the tab!
1 2 3 4 5
comments
print report bad tab
guest
You may want to rate the tab now too:
select rating
Wanna post a correction for this tab? Suggest correction