Oops, an error
Loading. Please wait.

One Of These Days Tab

version 2
version 2

Whole song

by Owen
40 views 12 this week
no commentswrite comment
1 2 3 4 5
2 more votes to show rating
add to favorites
launch autoscroll
font size
0
reset
how to read this tab
guitar tuner
Autoscroll
slow
fast
+/-
esc
set tempo
stop
Help us to improve Ultimate-Guitar.com Take our survey!
×
Author
Difficulty
Capo
intermediate
4th fret
Tabbed by: Michael Saikaley.

Tuning:DADF#AD
Capo: 4th fret

[Intro]
E|-----------------------------0--------------------------------|
B|--------------0--------------0--------------0-----------------|
G|--------0--------------0--------------0--------------0-----0--|
D|-----------5--------------5--------------5--------------5-----|
A|-----0--------------0--------------0--------------0-----------|
E|--0--------------0--------------0--------------0--------------|

E|-----------------------------0--------------------------------|
B|--------------0--------------0--------------0-----------------|
G|--------0--------------0--------------0--------------0-----0--|
D|-----------5--------------5--------------5--------------5-----|
A|-----5--------------5--------------5--------------5-----------|
E|--5--------------5--------------5--------------5--------------|

[Played after Intro]
E|--------------|
B|--0-----------|   (x4)
G|--------0-----|
D|-----5--------|
A|-----7-----7--|
E|--7-----------|

E|--------------|
B|--0-----------|
G|--------0-----| (x4)
D|-----5--------|
A|-----5-----5--|
E|--5-----------|

[Outro]
E|--------------------------------------------------------|
B|----------0--------------------0------------------------|
G|-------------------------------------------0------------|
D|--4--2\4-----0--0--0-----0--0--------0--------2p0-------| (repeat when necessary)
A|--2--0-------0--4-----0--2--------4-----7-----0----4p0--|
E|-------------5--4--------2--4--------5------------------|

 
************************************

| p  Pull-off
| \  Slide down

************************************
Suggest correction
Give kudos to tab author, rate the tab!
1 2 3 4 5
comments
print report bad tab
guest
You may want to rate the tab now too:
select rating
Wanna post a correction for this tab? Suggest correction