Oops, an error
Loading. Please wait.

Poor Souls tab

version 2
version 2

Whole song

by Owen
642 views 12 this week
no commentswrite comment
1 2 3 4 5
2 more votes to show rating
add to favorites
×
Save as Personal and add changes to this tab that will be seen only by you. Learn more ›
×
You can save this tab as Personal to edit and correct it or add notes. All changes will be seen only by you. Learn more »
launch autoscroll
font size
0
reset
how to read this tab
guitar tuner
edit
Autoscroll
slow
fast
+/-
esc
set tempo
stop
-------------------------------------------------------------------------------
                             POOR SOULS - Owen
-------------------------------------------------------------------------------

I tabbed this based off of the version on the Owen/The Rutabega Split EP. This may not be exactly how Mike 
plays it but it's tabbed so that it sounds exactly the same and is easy to play. It's the best I could do.


Tuning: D A D F# A D

Capo 4th




[MAIN RIFF]
e|------------------------0-----------|
B|----------0-------------------0-----|
G|--------------------------5---------|
D|------4h5---5p4-------0-----0-------|
A|----0-----------5p4-----------------|
E|-0------------------5---------------|

**On every fourth measure he plays...
e|------------------------0-----------|
B|----------0-------------------0-----|
G |--------------------------5---------|
D|------4h5---5p4-------0-----5-------|
A|----0-----------5p4-----------------|
E|-0------------------5---------------|

[PRE-BRIDGE] **this is just the main riff with a walkdown at the end.
e|------------------------0-------------------|
B|----------0-------------------0-------------|
G|--------------------------5-----------------|
D|------4h5---5p4-------0-----5---5-4-2p0-----|
A|----0-----------5p4-------------------------|
E|-0------------------5-----------------------|

[BRIDGE]
e|---------------------------------------------------------|
B|-----------------------------------------0---------------|
G|-0h1-----1p0---0------0----------------------------------|
D|-0------0----0----------2---0------0-----------0---------|
A|-0h2---2------------0-----4------0---0-----0-----0-------|
E|-0h2--2-----------4------------5-------5-----5-----5-----|
         ^sweep



************************************

| /   slide up
| \   slide down
| h   hammer-on
| p   pull-off
| ~   vibrato
| +   harmonic
| x   Mute note
| b   Bend
| pb  Pre-bend
| br  Bend release
| pbr Pre-bend release
| brb Bend release bend

************************************

            
            
Suggest correction
Creating personal tab
Creating personal tab
You can edit any tab online and save it as your Personal.

You can edit, replace or remove any tab part or add personal notes – all changes will be seen only by you.

Personal tabs can be accessed anytime from any device, even offline.
Learn more »
Give kudos to tab author, rate the tab!
1 2 3 4 5
comments
print report bad tab
guest
You may want to rate the tab now too:
select rating
Wanna post a correction for this tab? Suggest correction