Oops, an error
Loading. Please wait.

Ugly On The Inside tab

version 2
version 2

Whole song

by Owen
882 views 3 this week
no commentswrite comment
1 2 3 4 5
1 last vote to show rating
add to favorites
×
Save as Personal and add changes to this tab that will be seen only by you. Learn more ›
×
You can save this tab as Personal to edit and correct it or add notes. All changes will be seen only by you. Learn more »
launch autoscroll
font size
0
reset
how to read this tab
guitar tuner
edit
Autoscroll
slow
fast
+/-
esc
set tempo
stop
-------------------------------------------------------------------------------
                         UGLY ON THE INSIDE - Owen
-------------------------------------------------------------------------------

Tabbed the way Mike actually plays it.

Tuning: Standard

Capo 2nd


[VERSE]
e|--------0-----------------0---------0---------------------------------2--------------|
B|-3-----------3------------3---------3-----------------3--------------3------3--------|
G|-----2----------2---------2---------2-------------2--------2--------2----------2-----|
D|-0--------0--------0------0---------0----------0--------0----------0-----0-----------|
A|--------------------------x-----0---------0h2-------2-------------x------------------|
E|-----------------------3--------------------------------------3----------------------|
   ^use pick and middle finger to pluck both strings                ^sweep
e|--------0h2p0-------------0---------0--------------------------------------------------|
B|-3-------------3----------3---------3------------------3-------------------3-----------|
G|-----2------------2-------2---------2-------------2---------2---------2----------2-----|
D|-0------------------------0---------0----------0---------0---------0---------0---------|
A|--------------------------x-----0---------0h2--------2---------------------------------|
E|----------------------3-----------------------------------------3--------3-------------|


[CHORUS]
e|---------------------------------------------------------------------------------------|
B|---------------3--------------------3------------------3--------------------3----------|
G|----------2---------2----------2---------2---------2--------2----------2---------2-----|
D|-------0---------0----------2---------2---------0--------0----------2---------0--------|
A|-0h2---------2----------0---------2-----------------------------0---------2------------|
E|---------------------------------------------3-------3---------------------------------|
  But honestly...

e|-----------------------------------------------------------------------------------|
B|-------------3--------------------3-------------------3----------------------------|
G|--------2---------2----------2---------2----------2--------2--------2--------2-----|
D|-----0---------0----------2---------2----------0--------0--------0--------0--------|
A|-2---------2----------0---------2--------------------------------------0-----------|
E|-------------------------------------------3--------3---------3--------------------|
                                         ...you're ugly on the inside
e|----------------------------------------|
B|-----------3----------------------------|
G|-------2--------2--------2--------2-----|
D|----0--------0--------0--------0--------|
A|----------------------------0-----------|
E|-3-------3---------2--------------------|

Those are really the only two parts you need to know. There are a few parts he throws in on the 
studio version but this is how he plays it live. Have fun!


************************************

| /   slide up
| \   slide down
| h   hammer-on
| p   pull-off
| ~   vibrato
| +   harmonic
| x   Mute note
| b   Bend
| pb  Pre-bend
| br  Bend release
| pbr Pre-bend release
| brb Bend release bend

************************************
Suggest correction
Creating personal tab
Creating personal tab
You can edit any tab online and save it as your Personal.

You can edit, replace or remove any tab part or add personal notes – all changes will be seen only by you.

Personal tabs can be accessed anytime from any device, even offline.
Learn more »
Give kudos to tab author, rate the tab!
1 2 3 4 5
comments
print report bad tab
guest
You may want to rate the tab now too:
select rating
Wanna post a correction for this tab? Suggest correction