Oops, an error
Loading. Please wait.

Adventure Exe tab

298 views 1 this week
no commentswrite comment
1 2 3 4 5
2 more votes to show rating
add to favorites
×
Save as Personal and add changes to this tab that will be seen only by you. Learn more ›
×
You can save this tab as Personal to edit and correct it or add notes. All changes will be seen only by you. Learn more »
launch autoscroll
font size
0
reset
how to read this tab
guitar tuner
edit
Autoscroll
slow
fast
+/-
esc
set tempo
stop
Author
ADVENTURE.EXE - Owen Pallett/Final Fantasy
Tabbed by: Vicky
Tuning: Standard


[Intro]

e|----------------------------------|---------------------------------|
B|------------------------3---------|-----------------------3---------|
G|----2---2---2---2---2-------2---2-|---2---2---2---2---0-------0---0-|
D|--3---3---3---3---3---3---3---3---|-3---3---3---3---3---3---3---3---|
A|----------------------------------|---------------------------------|
E|----------------------------------|---------------------------------|


[Verse 1]

Hey yo yo yo yo yo,                  I've got an empire to overthrow,
e|----------------------------------|---------------------------------|
B|----------------------------------|---------------------------------|
G|----2---2---2---2---2---2---2---2-|---------------------------------|
D|--3---3---3---3---3---3---3---3---|---3---3---3---3---3---3---3---3-|
A|----------------------------------|-5---5---4---4---3---3---3---3---|
E|----------------------------------|---------------------------------|

You make me wish for a more dangerous life, so I can show you bout self sacrifice.
e|----------------------------------|-------------------------------------|----------------------------------|
B|----------------------------------|-------------------------------------|----------------------------------|
G|----------------------------------|-------------------------------------|----------------------------------|
D|----3---3---3---3---3---3---3---3-|----3---3---3---3---3---3------------|----3---3---3---3---3---3---3---3-|
A|--5---5---4---4---3---3---3---3---|-------------------------------------|----------------------------------|
E|----------------------------------|--6---6---5---5---3---3---3h4h5--3h5-|--1---1---1---1---1---1---1---1---|


[Verse 2]

Say yes yes yes yes yes,            say no no no to a natural death,
e|----------------------------------|---------------------------------|
B|----------------------------------|---------------------------------|
G|----2---2---2---2---2---2---2---2-|---------------------------------|
D|--3---3---3---3---3---3---3---3---|---3---3---3---3---3---3---3---3-|
A|----------------------------------|-5---5---4---4---3---3---3---3---|
E|----------------------------------|---------------------------------|

I'd rather give my life to god as man, than have to line up at the bank again.
e|----------------------------------|-------------------------------------|----------------------------------|
B|----------------------------------|-------------------------------------|----------------------------------|
G|----------------------------------|-------------------------------------|----------------------------------|
D|----3---3---3---3---3---3---3---3-|----3---3---3---3---3---3------------|----3---3---3---3---3---3---3---3-|
A|--5---5---4---4---3---3---3---3---|-------------------------------------|----------------------------------|
E|----------------------------------|--6---6---5---5---3---3---3h4h5--3h5-|--1---1---1---1---1---1---1---1---|


[Instrumental]

e|----------------------------------|---------------------------------|
B|--------4---------------4---------|-------3---------------3---------|
G|----2-------2---2---2-------2---2-|---3-------3---3---3-------3---3-|
D|--3---3---3---3---3---3---3---3---|-3---3---3---3---3---3---3---3---|
A|----------------------------------|---------------------------------|
E|----------------------------------|---------------------------------|

e|----------------------------------|---------------------------------|
B|--------2---------------2---------|-------1---------------1---------|
G|----3-------3---3---3-------3---3-|---2-------2---2---2-------2---2-|
D|--3---3---3---3---3---3---3---3---|-3---3---3---3---3---3---3---3---|
A|----------------------------------|---------------------------------|
E|----------------------------------|---------------------------------|

e|----------------1-----------------|---------------1-----------------|
B|--------4---------------4---------|-------3---------------3---------|
G|----2-------2-------2-------2---2-|---3-------3-------3-------3---3-|
D|--3---3---3---3---3---3---3---3---|-3---3---3---3---3---3---3---3---|
A|----------------------------------|---------------------------------|
E|----------------------------------|---------------------------------|

e|----------------1-----------------|---------------1-----------------------------|
B|--------2---------------2---------|-------1---------------1---------------------|
G|----3-------3-------3-------3---3-|---2-------2-------2-------2---2-------------|
D|--3---3---3---3---3---3---3---3---|-3---3---3---3---3---3---3---3----3(let ring)|
A|----------------------------------|---------------------------------------------|
E|----------------------------------|---------------------------------------------|


[Verse 3]

Oh you you you you you,             if you only knew the lengths I'd go to,
e|----------------------------------|---------------------------------|
B|----------------------------------|---------------------------------|
G|----2---2---2---2---2---2---2---2-|---------------------------------|
D|--3---3---3---3---3---3---3---3---|---3---3---3---3---3---3---3---3-|
A|----------------------------------|-5---5---4---4---3---3---3---3---|
E|----------------------------------|---------------------------------|

You pack away all your ballpoint pens, and take a plane back to the Phillipines
e|----------------------------------|-------------------------------------|----------------------------------|
B|----------------------------------|-------------------------------------|----------------------------------|
G|----------------------------------|-------------------------------------|----------------------------------|
D|----3---3---3---3---3---3---3---3-|----3---3---3---3---3---3------------|---3---3---3---3---3---3---3---3--|
A|--5---5---4---4---3---3---3---3---|-------------------------------------|----------------------------------|
E|----------------------------------|--6---6---5---5---3---3---3h4h5--3h5-|-1---1---1---1---1---1---1---1---1|

(let the last note ring!)


***********************************
| /  slide up
| \  slide down
| h  hammer-on
| p  pull-off
| ~  vibrato
| +  harmonic
| x  Mute note
***********************************

            
            
Suggest correction
Creating personal tab
Creating personal tab
You can edit any tab online and save it as your Personal.

You can edit, replace or remove any tab part or add personal notes – all changes will be seen only by you.

Personal tabs can be accessed anytime from any device, even offline.
Learn more »
Give kudos to tab author, rate the tab!
1 2 3 4 5
comments
print report bad tab
guest
You may want to rate the tab now too:
select rating
Wanna post a correction for this tab? Suggest correction