Oops, an error
Loading. Please wait.

Oh Heartland Up Yours Bass Tab

467 views 1 this week
no commentswrite comment
1 2 3 4 5
please rate
add to favorites
launch autoscroll
font size
0
reset
guitar tuner
Autoscroll
slow
fast
+/-
esc
set tempo
stop
Help us to improve Ultimate-Guitar.com Take our survey!
×
Author
Difficulty
novice
Artist: Owen Pallett
Song: Oh Heartland, Up Yours!
Album: Heartland
Tabbed by: Dave Sheehan (daveys14 [at] hotmail.com)


PLEASE rate this tab :)



VERSE

G|-------------------------------------------|
D|-------------------------------------------|
A|-5-5-5--------5-5-5/10-10-10-----10-10-10\-|
E|-------------------------------------------| x6
 


PRECHORUS (I will seek out my own satisfaction)


G|-------------------------------------|
D|-------------------------------------|
A|-8h10-10~~-10/1-1~~~1\6-6--6-6-6-6---|
E|-------------------------------------|



CHORUS


G|----------------------------------------|
D|----------------------------------------|
A|-10-10--8-8--5-5-5-5-/10-10-8-8-5-5-5-5-|
E|----------------------------------------|


G|---------------------------5-7---|
D|--------8-7-8-5----7-8---8----5--|
A|---------------------------------|
E|-56~~~~--------------------------| (play chorus twice)
 


Repeat all the above, until the lyric "Oh Heartland, Up Yours"


G|-------------------------------------------|
D|-------------------------------------------|
A|--------------------------------0-1--------|
E|--------------0-1-3-3-3~~~~-1-3------------|
B|-3-3-3~~~-1-3-----------------------3-~~~~-| x2 (with no vocals)

G|------------------------------------------------|
D|------------------------------------------------|
A|-------------------------------------0-1--------|
E|-----------------0-1-3-3-3-3-3-3-1-3------------|
B|-3-3-3-3-3-3-1-3------------------------3-~~~~--| x6 



IF YOU ONLY HAVE A 4 STRING - you'll either need to tune your E string down 2 tones
to C, or play an octave higher. The latter is more convenient so here's the last part
tabbed higher:

G|------------------------------2-3-|
D|-------------2-3-5-5-5~~~-3-5-----|
A|-5-5-5~~~-3-5---------------------|
E|----------------------------------| x2 (with no vocals)


G|-------------------------------------2-3-|
D|-----------------2-3-5-5-5-5-5-5-3-5-----|
A|-5-5-5-5-5-5-3-5-------------------------|
E|-----------------------------------------| x6 


Enjoy!

Suggest correction
What's this?
You can suggest a correction to this tab. Community and Mods will review your correction and vote to approve or reject it.
comments
We did not receive enough feedback on this tab! Please rate:
print report bad tab
1 2 3 4 5
guest
You may want to rate the tab now too:
select rating
Please do not post tabs as comments. Select "correction" instead!