Oops, an error
Loading. Please wait.

Back Home tab

82 views 3 this week
no commentswrite comment
1 2 3 4 5
2 more votes to show rating
add to favorites
×
Save as Personal and add changes to this tab that will be seen only by you. Learn more ›
×
You can save this tab as Personal to edit and correct it or add notes. All changes will be seen only by you. Learn more »
launch autoscroll
font size
0
reset
how to read this tab
guitar tuner
edit
Autoscroll
slow
fast
+/-
esc
set tempo
stop
About this tab version
Played fingerstyle. Based on studio version. Was this info helpful? Yes No
Cadd9 x32033
G     320033
D     xx0232
Em    022033


 [Intro]

C#|------------------|---------------|---------------|------------------------|
G#|---------3--------|-------3-------|-------3-------|-------3----------------|
E |----0-------0---0-|---0-----0---0-|---0-----0---0-|---0-----0---0----------|
B |------0-------0---|-----0-----0---|-----0-----0---|-----0-----0------------|
F#|------------------|---------------|---------------|------------------------|
C#|--3---------------|-3-------------|-3-------------|-3----------------------|
                                                                   I'm saying 

 [Chorus 1]

     Cadd9            G                D                Em
C#|-----------------|----------------|----------------|-----------------------|
G#|---------3-------|--------3-------|--------3-------|--------3--------------|
E |-----0-----0---0-|----0-----0---0-|----2-----2---2-|----0-----0---0--------|
B |-------2-----0---|------0-----0---|--0---0-----0---|------2-----2----------|
F#|--3--------------|----------------|----------------|-----------------------|
C#|-----------------|--3-------------|----------------|--0--------------------|
     goodbye to the   skyline,        Hello to the sweet pines,         Gonna

     Cadd9            G                D                Em
C#|-----------------|----------------|----------------|-----------------------|
G#|---------3-------|--------3-------|--------3-------|--------3--------------|
E |-----0-----0---0-|----0-----0---0-|----2-----2---2-|----0-----0---0--------|
B |-------2-----0---|------0-----0---|--0---0-----0---|------2-----2----------|
F#|--3--------------|----------------|----------------|-----------------------|
C#|-----------------|--3-------------|----------------|--0--------------------|
    see you later    street lights,   I'm headed back to tree lines,       To

     Cadd9            G                D                Em
C#|-----------------|----------------|----------------|-----------------------|
G#|---------3-------|--------3-------|--------3-------|--------3--------------|
E |-----0-----0---0-|----0-----0---0-|----2-----2---2-|----0-----0---0--------|
B |-------2-----0---|------0-----0---|--0---0-----0---|------2-----2----------|
F#|--3--------------|----------------|----------------|-----------------------|
C#|-----------------|--3-------------|----------------|--0--------------------|
    free time and     starry nights,   To bonfires and   fire flies,     Pack your 

     Cadd9            G                D                
C#|-----------------|----------------|----------------|-----------------------|
G#|---------3-------|--------3-------|--------3-------|--------3--------------|
E |-----0-----0---0-|----0-----0---0-|----2-----2---2-|----2------------------|
B |-------2-----0---|------0-----0---|--0---0-----0---|--0---0----------------|
F#|--3--------------|----------------|----------------|-----------------------|
C#|-----------------|--3-------------|----------------|-----------------------|
   bags it's time to go,       Cause   we got brighter lights           back home.


 [Transition]

     Cadd9            G                D                Em
C#|-----------------|----------------|----------------|-----------------------|
G#|---------3-------|--------3-------|--------3-------|--------3--------------|
E |-----0-----0---0-|----0-----0---0-|----2-----2---2-|----0-----0---0--------|
B |-------2-----0---|------0-----0---|--0---0-----0---|------2-----2----------|
F#|--3--------------|----------------|----------------|-----------------------|
C#|-----------------|--3-------------|----------------|--0--------------------|

     Cadd9            G                D                
C#|-----------------|----------------|----------------|-----------------------|
G#|---------3-------|--------3-------|--------3-------|--------3--------------|
E |-----0-----0---0-|----0-----0---0-|----2-----2---2-|----2-----2---2--------|
B |-------2-----0---|------0-----0---|--0---0-----0---|--0---0-----0----------|
F#|--3--------------|----------------|----------------|-----------------------|
C#|-----------------|--3-------------|----------------|-----------------------|
                                                                      I've got

[Verse 1]

     Cadd9                             G
C#|-----------------|----------------|----------------|-----------------------|
G#|---------3-------|--------3-------|--------3-------|--------3--------------|
E |-----0-----0---0-|----0-----0---0-|----0-----0---2-|----0-----0---0--------|
B |-------2-----0---|-----2------0---|------0-----0---|------0-----0----------|
F#|--3--------------|--3-------------|----------------|-----------------------|
C#|-----------------|----------------|--3-------------|--3--------------------|
     a       -       ching             feet,                       From walking

    D                                  Em
C#|-----------------|----------------|----------------|-----------------------|
G#|--------3--------|--------3-------|--------3-------|--------3--------------|
E |----2-----0---0--|----2-----0---0-|----0-----0---0-|----0-----0---0--------|
B |--0---0-----2----|--0---0-----2---|------2-----2---|------2-----2----------|
F#|-----------------|----------------|----------------|-----------------------|
C#|-----------------|----------------|--0-------------|--0--------------------|
                       over             miles of concrete,          And I can't

     Cadd9                             G  
C#|-----------------|----------------|----------------|-----------------------|
G#|---------3-------|--------3-------|--------3-------|--------3--------------|
E |-----0-----0---0-|----0-----0---0-|----0-----0---2-|----0-----0---0--------|
B |-------2-----0---|-----2------0---|------0-----0---|------0-----0----------|
F#|--3--------------|--3-------------|----------------|-----------------------|
C#|-----------------|----------------|--3-------------|--3--------------------|
    wa         -          it      to   dream,                       But the city

    D                                  Em
C#|-----------------|----------------|----------------|-----------------------|
G#|--------3--------|--------3-------|--------3-------|--------3--------------|
E |----2-----0---0--|----2-----0---0-|----0-----0---0-|----0-----0---0--------|
B |--0---0-----2----|--0---0-----2---|------2-----2---|------2-----2----------|
F#|-----------------|----------------|----------------|-----------------------|
C#|-----------------|----------------|--0-------------|--0--------------------|
                     you know she      won't go to sleep,    So I'm saying


[Chorus 2]

     Cadd9            G                D                Em
C#|-----------------|----------------|----------------|-----------------------|
G#|---------3-------|--------3-------|--------3-------|--------3--------------|
E |-----0-----0---0-|----0-----0---0-|----2-----2---2-|----0-----0---0--------|
B |-------2-----0---|------0-----0---|--0---0-----0---|------2-----2----------|
F#|--3--------------|----------------|----------------|-----------------------|
C#|-----------------|--3-------------|----------------|--0--------------------|
     goodbye to the   skyline,        Hello to the sweet pines,         Gonna

     Cadd9            G                D                Em
C#|-----------------|----------------|----------------|-----------------------|
G#|---------3-------|--------3-------|--------3-------|--------3--------------|
E |-----0-----0---0-|----0-----0---0-|----2-----2---2-|----0-----0---0--------|
B |-------2-----0---|------0-----0---|--0---0-----0---|------2-----2----------|
F#|--3--------------|----------------|----------------|-----------------------|
C#|-----------------|--3-------------|----------------|--0--------------------|
    see you later    street lights,   I'm headed back to tree lines,      To

     Cadd9            G                D                Em
C#|-----------------|----------------|----------------|-----------------------|
G#|---------3-------|--------3-------|--------3-------|--------3--------------|
E |-----0-----0---0-|----0-----0---0-|----2-----2---2-|----0-----0---0--------|
B |-------2-----0---|------0-----0---|--0---0-----0---|------2-----2----------|
F#|--3--------------|----------------|----------------|-----------------------|
C#|-----------------|--3-------------|----------------|--0--------------------|
    free time and    starry nights,   To bonfires and   fire flies,     Pack your 

     Cadd9            G                D                
C#|-----------------|----------------|----------------|-----------------------|
G#|---------3-------|--------3-------|--------3-------|--------3--------------|
E |-----0-----0---0-|----0-----0---0-|----2-----2---2-|----2-----2---2--------|
B |-------2-----0---|------0-----0---|--0---0-----0---|--0---0-----0----------|
F#|--3--------------|----------------|----------------|-----------------------|
C#|-----------------|--3-------------|----------------|-----------------------|
   bags it's time to go,                         Cause   we got brighter lights

    D                 Cadd9            G                D      
C#|-----------------|----------------|----------------|-----------------------|
G#|--------3--------|--------3-------|--------3-------|--------3--------------|
E |----2-----2---2--|----0-----0---0-|----0-----0---0-|----2-----2---2--------|
B |--0---0-----0----|------2-----0---|------0-----0---|--0---0-----0----------|
F#|-----------------|--3-------------|----------------|-----------------------|
C#|-----------------|----------------|--3-------------|-----------------------|
        back home,                              Yeah,  we've got brither lights,   Back

[Verse 2]

     Cadd9                   G                D                             Em
C#|------------------------|----------------|-----------------------------|-----------------------|
G#|---------3--------------|--------3-------|--------3--------------------|--------3--------------|
E |-----0-----0---0--------|----0-----0---0-|----2-----2---2--------------|----0-----0---0--------|
B |-------2-----0----------|------0-----0---|--0---0-----0----------------|------2-----2----------|
F#|--3---------------------|----------------|-----------------------------|-----------------------|
C#|------------------------|--3-------------|-----------------------------|--0--------------------|
   home there's a girl named  Mary Lou,    A   diner off the highway with a  corner booth,

     Cadd9                   G                D                        
C#|------------------------|----------------|-----------------------|-----------------------|
G#|---------3--------------|--------3-------|--------3--------------|--------3--------------|
E |-----0-----0---0--------|----0-----0---0-|----2-----2---2--------|----2-----2---2--------|
B |-------2-----0----------|------0-----0---|--0---0-----0----------|--0---0-----0----------|
F#|--3---------------------|----------------|-----------------------|-----------------------|
C#|------------------------|--3-------------|-----------------------|-----------------------|
    every gravel road is a   trip down memory lane.                                   Back

     Cadd9                   G                D                             Em
C#|------------------------|----------------|-----------------------------|-----------------------|
G#|---------3--------------|--------3-------|--------3--------------------|--------3--------------|
E |-----0-----0---0--------|----0-----0---0-|----2-----2---2--------------|----0-----0---0--------|
B |-------2-----0----------|------0-----0---|--0---0-----0----------------|------2-----2----------|
F#|--3---------------------|----------------|-----------------------------|-----------------------|
C#|------------------------|--3-------------|-----------------------------|--0--------------------|
   home where the corn grows ten feet tall,   Every year's measured on the   pantry wall,    The

     Cadd9                         G                D                        
C#|------------------------------|----------------|--------------------|-----------------------|
G#|---------3--------------------|--------3-------|--------3-----------|--------3--------------|
E |-----0-----0---0--------------|----0-----0---0-|----2-----2---2-----|----2-----2---2--------|
B |-------2-----0----------------|------0-----0---|--0---0-----0-------|--0---0-----0----------|
F#|--3---------------------------|----------------|--------------------|-----------------------|
C#|------------------------------|--3-------------|--------------------|-----------------------|
    willow trees are waving 'til we come back home again.                                   I'm saying


[Chorus 3]

    Cadd9            G                D                Em
C#|-----------------|----------------|----------------|-----------------------|
G#|---------3-------|--------3-------|--------3-------|--------3--------------|
E |-----0-----0---0-|----0-----0---0-|----2-----2---2-|----0-----0---0--------|
B |-------2-----0---|------0-----0---|--0---0-----0---|------2-----2----------|
F#|--3--------------|----------------|----------------|-----------------------|
C#|-----------------|--3-------------|----------------|--0--------------------|
    goodbye to the   skyline,        Hello to the sweet pines,         Gonna
 
    Cadd9            G                D                Em
C#|-----------------|----------------|----------------|-----------------------|
G#|---------3-------|--------3-------|--------3-------|--------3--------------|
E |-----0-----0---0-|----0-----0---0-|----2-----2---2-|----0-----0---0--------|
B |-------2-----0---|------0-----0---|--0---0-----0---|------2-----2----------|
F#|--3--------------|----------------|----------------|-----------------------|
C#|-----------------|--3-------------|----------------|--0--------------------|
   see you later    street lights,   I'm headed back to tree lines,       To
 
    Cadd9            G                D                Em
C#|-----------------|----------------|----------------|-----------------------|
G#|---------3-------|--------3-------|--------3-------|--------3--------------|
E |-----0-----0---0-|----0-----0---0-|----2-----2---2-|----0-----0---0--------|
B |-------2-----0---|------0-----0---|--0---0-----0---|------2-----2----------|
F#|--3--------------|----------------|----------------|-----------------------|
C#|-----------------|--3-------------|----------------|--0--------------------|
   free time and     starry nights,   To bonfires and   fire flies,     Pack your
 
    Cadd9            G                D                 Cadd9
C#|-----------------|----------------|----------------|-----------------------|
G#|---------3-------|--------3-------|--------3-------|--------3--------------|
E |-----0-----0---0-|----0-----0---0-|----2-----2---2-|----0-----0---0--------|
B |-------2-----0---|------0-----0---|--0---0-----0---|------2-----0----------|
F#|--3--------------|----------------|----------------|--3--------------------|
C#|-----------------|--3-------------|----------------|-----------------------|
     bags it's time to go,                    Pack your  bags it's time to 

  G                   D                                 No chord
C#|-----------------|----------------|----------------|-----------------------|
G#|--------3--------|--------3-------|--------3-------|-----------------------|
E |----0-----0---0--|----2-----2---2-|----2-----2---2-|-----------------------|
B |------0-----0----|--0---0-----0---|--0---0-----0---|-----------------------|
F#|-----------------|----------------|----------------|-----------------------|
C#|--3--------------|----------------|----------------|-----------------------|
     go                                                           I'm saying

[Chorus 4]

    Cadd9            G                D                Em
C#|-----------------|----------------|----------------|-----------------------|
G#|---------3-------|--------3-------|--------3-------|--------3--------------|
E |-----0-----0---0-|----0-----0---0-|----2-----2---2-|----0-----0---0--------|
B |-------2-----0---|------0-----0---|--0---0-----0---|------2-----2----------|
F#|--3--------------|----------------|----------------|-----------------------|
C#|-----------------|--3-------------|----------------|--0--------------------|
    goodbye to the   skyline,        Hello to the sweet pines,         Gonna
 
    Cadd9            G                D                Em
C#|-----------------|----------------|----------------|-----------------------|
G#|---------3-------|--------3-------|--------3-------|--------3--------------|
E |-----0-----0---0-|----0-----0---0-|----2-----2---2-|----0-----0---0--------|
B |-------2-----0---|------0-----0---|--0---0-----0---|------2-----2----------|
F#|--3--------------|----------------|----------------|-----------------------|
C#|-----------------|--3-------------|----------------|--0--------------------|
   see you later    street lights,   I'm headed back to tree lines,        To
 
    Cadd9            G                D                Em
C#|-----------------|----------------|----------------|-----------------------|
G#|---------3-------|--------3-------|--------3-------|--------3--------------|
E |-----0-----0---0-|----0-----0---0-|----2-----2---2-|----0-----0---0--------|
B |-------2-----0---|------0-----0---|--0---0-----0---|------2-----2----------|
F#|--3--------------|----------------|----------------|-----------------------|
C#|-----------------|--3-------------|----------------|--0--------------------|
   free time and     starry nights,   To bonfires and   fire flies,     Pack your
 
    Cadd9            G                D                 Cadd9
C#|-----------------|----------------|----------------|-----------------------|
G#|---------3-------|--------3-------|--------3-------|--------3--------------|
E |-----0-----0---0-|----0-----0---0-|----2-----2---2-|----0-----0---0--------|
B |-------2-----0---|------0-----0---|--0---0-----0---|------2-----0----------|
F#|--3--------------|----------------|----------------|--3--------------------|
C#|-----------------|--3-------------|----------------|-----------------------|
     bags it's time to go,                    Pack your  bags it's time to 

  G                   D                                
C#|-----------------|----------------|----------------|-----------------------|
G#|--------3--------|--------3-------|--------3-------|--------3--------------|
E |----0-----0---0--|----2-----2---2-|----2-----2---2-|----2-----2---2--------|
B |------0-----0----|--0---0-----0---|--0---0-----0---|--0---0-----0----------|
F#|-----------------|----------------|----------------|-----------------------|
C#|--3--------------|----------------|----------------|-----------------------|
     go                                                                'Cause

    D                                  G                               
C#|-----------------|----------------|--3-------------|-------------------|
G#|--------3--------|--------3-------|--3-------------|-------------------|
E |----2-----2---2--|----2-----------|--0-------------|-------------------|
B |--0---0-----0----|--0---0---------|--0-------------|-------------------|
F#|-----------------|----------------|--2-------------|-------------------|
C#|-----------------|----------------|--3-------------|-------------------|
    we've got brither lights back home.

            
            
Suggest correction
Creating personal tab
Creating personal tab
You can edit any tab online and save it as your Personal.

You can edit, replace or remove any tab part or add personal notes – all changes will be seen only by you.

Personal tabs can be accessed anytime from any device, even offline.
Learn more »
Give kudos to tab author, rate the tab!
1 2 3 4 5
comments
print report bad tab
guest
You may want to rate the tab now too:
select rating
Wanna post a correction for this tab? Suggest correction