Oops, an error
Loading. Please wait.

Cave In Tab

6,741 views 3 this week
no commentswrite comment
1 2 3 4 5
1 last vote to show rating
add to favorites
launch autoscroll
font size
0
reset
how to read this tab
guitar tuner
Autoscroll
slow
fast
+/-
esc
set tempo
stop
Help us to improve Ultimate-Guitar.com Take our survey!
×
Author
Difficulty
-------------------------------------------------------------------------------
                             SONG NAME - Band Name
-------------------------------------------------------------------------------
Tabbed by:
Email:

Tuning: Standard

I don't know why anyone posted the tabs for this song. pretty simple really. Just F,F, 
G basically. Find out the strumming. I did this ear so it may not be the same key as the 
This is at least the verse and intro.

Chords:
F F C G


         F          F              C         G
e|---1-1-1-1-0----1-1-1-1--3---0-0-0-0---------------------------------------|
B|---2-2-2-2---1--2-2-2-2----1-1-1-1-1--1-0-1-1-1-3h1-0----------------------|
G|---3-3-3-3------3-3-3-3------0-0-0-0------------------0--------------------|
D|---3-3-3-3------3-3-3-3------2-2-2-2---------------------------------------|
A|---1-1-1-1------1-1-1-3------3-3-3-3------2-2-2----------------------------|
E|---1-1-1-1------1-1-1-1------0-0-0-0------3-3-3----------------------------|

Please take a long hard look
Through your text book cause I'm history
When I strap my helmet on I'll be long gone
Cause I've been dying to leave
Yeah, I'll ride the range
And hide all my loose change in my bedroom
Cause riding a dirt bike down a turn pike
Always takes its toll on me

I've had just about enough
Of cloaked diamonds in the rough
Because my back-bone is paper thin
Get me out of this cavern or I'll cave in
(I'll cave in, I'll cave in...)

If the bombs go off the sun will still be shining
(The sun will still be shining)
Because I've heard it said that
Every mushroom cloud has a silver lining
(Though I'm always under mining to deep to know)
Swallow a drop of gravel and blacktop
Cause the road tastes like Wintergreen
The wind and rain smell of oil and octane
Mixed with stale gasoline

I'll soak up the sound
Try to sleep on the wet ground
I'll get ten minutes give or take
Cause I just don't foresee myself getting drowsy
When cold integrity keeps me wide awake
(Awake, awake, awake, awake...)

Get me out of this cavern or I'll cave in
(Cave in, cave in, cave in, cave in...)

Get me out of this cavern or I'll cave in
(Cave in, cave in, cave in, cave in...)

I'll keep my helmet on
Just in case my head caves in
(In case my head caves in)
Cause if my thoughts collapse
Or my brain work snaps
It'll make a mess like you wouldn't believe
Tie my handle bars to the stars
So I stay on track (so I stay on track)
And if my intentions trail I'll wrench them away
Then I'll take my leave and I won't even look back

I won't even look back
Suggest correction
Give kudos to tab author, rate the tab!
1 2 3 4 5
comments
print report bad tab
guest
You may want to rate the tab now too:
select rating
Wanna post a correction for this tab? Suggest correction