Oops, an error
Loading. Please wait.

Dementia Bass Tab

version 1
version 1

Whole song

Interactive

2,055 views 6 this week
no commentswrite comment
1 2 3 4 5
accurate
x 5
add to favorites
launch autoscroll
font size
0
reset
guitar tuner
Autoscroll
slow
fast
+/-
esc
set tempo
stop
Help us to improve Ultimate-Guitar.com Take our survey!
×
Author
Difficulty
novice
Artist: Owl City
Album: Shooting Star (EP)
Song: Dementia (feat. Mark Hoppus)

Tabbed by : magicberu/frenchboy

Tuning: Standard (EADG)



Verses:

G|---------------------------------------------------------------------------|
D|---------------------------------------------------------------------------|
A|-----4-4-4-4-4-4-4-4-4-4-4-4-----------------------------------------------|
E|2-4--------------------------4-4-4-4-2-2-2-2-2-2-2-2-2-2-2-2-1-1-1-1-------|

G|---------------------------------------------------------------------------|
D|---------------------------------------------------------------------------|
A|4-4-4-4-4-4-4-4------------------------------------------------------------|
E|----------------6-6-6-6-4-4-4-4-2-2-2-2-4h6-4-4-4-4-4-4-4-4----------------|

G|---------------------------------------------------------------------------|
D|---------------------------------------------------------------------------|
A|4-4-4-4-4-4-4-4-4-4-4-4----------------------------------------------------|
E|------------------------4-4-4-4-2-2-2-2-2-2-2-2-2-2-2-2-1-1-1-1------------|

G|---------------------------------------------------------------------------|
D|---------------------------------------------------------------------------|
A|4-4-4-4-4-4-4-4------------------------------------------------------------|
E|----------------6-6-6-6-4-4-4-4-2-2-2-2-4h6-4-4-4-4-4-4-4-4----------------|



Chorus (0:53-1:08 and 1:53-2:08):

G|---------------------------------------------------------------------------|
D|------------3-3-4-4-4-4-6-6-6-6-------------3-3-4-4-4-4-6-6-6-6------------|
A|4-4-4-4-4-4---------------------6-6-6-6-6-6--------------------------------|
E|---------------------------------------------------------------------------|

G|-----------------------------------------------------------------6---------|
D|------------3-3-4-4-4-4-6-6-6-6-8-8-8-8-8-8-6-6-4-4-4-4-6-6-6-6------------|
A|4-4-4-4-4-4----------------------------------------------------------------|
E|---------------------------------------------------------------------------|


Instrumental (2:08-2-23):

G|---------------------------------------------------------------------------|
D|---------------------------------------------------------------------------|
A|---------------------------------------------------------------------------|
E|6-6-6-6-6-6-6-6-4-4-4-4-4-4-4-4-2-2-2-2-2-2-2-2-4-4-4-4-4-4-4-4------------|

G|---------------------------------------------------------------------------|
D|---------------------------------------------------------------------------|
A|---------------------------------------------------------------------------|
E|6-6-6-6-6-6-6-6-4-4-4-4-4-4-4-4-2-2-2-2-2-2-2-2-4-4------------------------|


Chorus (2:23-2:54) (x2):

G|---------------------------------------------------------------------------|
D|------------3-3-4-4-4-4-6-6-6-6-------------3-3-4-4-4-4-6-6-6-6------------|
A|4-4-4-4-4-4---------------------6-6-6-6-6-6--------------------------------|
E|---------------------------------------------------------------------------|

G|---------------------------------------------------------------------------|
D|------------3-3-4-4-4-4-6-6-6-6-8-8-8-8-8-8-6-6-4-4-4-4-6-6-6-6------------|
A|4-4-4-4-4-4----------------------------------------------------------------|
E|---------------------------------------------------------------------------|


Ending (2:54-3:10):


G|---------------------------------------------------------------------------|
D|------------------------4-4-4-4-2-2-2-2-4h6-4-4-4-4-4-4-4-4----------------|
A|4-4-4-4-4-4-4-4-4-4-4-4----------------------------------------------------|
E|---------------------------------------------------------------------------|

G|---------------------------------------------------------------------------|
D|----------------6-6-6-6-4-4-4-4-2-2-2-2-4h6-4-4-4-4-4-4-4-4----------------|
A|4-4-4-4-4-4-4-4---------------------------------------------4--------------|
E|---------------------------------------------------------------------------|
Suggest correction
comments
print report bad tab
guest
You may want to rate the tab now too:
select rating
Please do not post tabs as comments. Select "correction" instead!