Oops, an error
Loading. Please wait.

Dental Care Tab

version 2
version 2

Intro

291 views 1 this week
no commentswrite comment
1 2 3 4 5
please rate
add to favorites
launch autoscroll
font size
0
reset
how to read this tab
guitar tuner
Autoscroll
slow
fast
+/-
esc
set tempo
stop
Help us to improve Ultimate-Guitar.com Take our survey!
×
Author
I did this all by ear, so it's probably not 100% correct.
It just seems to be a little more accurate than previous entries.
Enjoy. 


e|-------------------------2--|
B|--11--12-11--7--9--7--4-----|
G|----------------------------|
D|----------------------------|
A|----------------------------|
E|----------------------------|

e|----------------------------------------------------|
B|--11--12-11--7--9--7--4--2-2--4--2----5--2--5-4-2---|
G|-----------------------------------4----4--------4--|
D|----------------------------------------------------|
A|----------------------------------------------------|
E|----------------------------------------------------|
Suggest correction
Give kudos to tab author, rate the tab!
1 2 3 4 5
comments
print report bad tab
guest
You may want to rate the tab now too:
select rating
Wanna post a correction for this tab? Suggest correction