Oops, an error
Loading. Please wait.

Fireflies Tab

version 7
version 7
10,707 views 15 this week
no commentswrite comment
1 2 3 4 5
accurate
x 4
add to favorites
launch autoscroll
font size
0
reset
how to read this tab
guitar tuner
Autoscroll
slow
fast
+/-
esc
set tempo
stop
Help us to improve Ultimate-Guitar.com Take our survey!
×
Contributor
Difficulty
Capo
novice
3rd fret
"Fireflies" by Owl City.
Capo on the 3rd fret.

The best chords to this song are, of course, the highest rated one, and I noticed that
there weren't very many intro tabs including a capo on the 3rd fret to go with them. This way,
you can play the intro and then the correct chords.

Note: The letters above the tab indicate what chord to play when. It's just in 
case you might want to do a rhythm guitar/lead guitar
thing with someone.

I'm pretty sure this is right, but this is my first tab so I hope it's easy to follow.
Anyway, have fun! :D



        G                     C                   F
e|--------7-----3---|--------------3---|-----------------------------------|
B|------------3------------3---3-------------------------------------------|
G|--0--4---4-----------5-5---5------------0-0-2-0-2-5---0-0-2-0--0-5-7-----|
D|------------------|------------------|-----------------------------------|
A|------------------|------------------|-----------------------------------|
E|------------------|------------------|-----------------------------------|


        G                     C                   F
e|-------7------3---|------------------|-----------------------------------|
B|-----------3--------------3-------------6-5-1----------------------------|
G|--0--4---4-----------5-5----5-----------------0------2-0--2-2-0-5-7------|
D|------------------|------------------|-----------------------------------|
A|------------------|------------------|-----------------------------------|
E|------------------|------------------|-----------------------------------|


This is the part that plays over the part above (which you probably already 
knew :P).

        G        C           F                 G         C           F
e|-----------|---------|----------------------|--------|--------|----------|
B|-----------|---------|----------------------|--------|--------|----------|
G|--4-0-5-------4-0-------2----0-0-2-5-7---------0-0------9-7------5-------|
D|-----------|---------|----------------------|--------|--------|----------|
A|-----------|---------|----------------------|--------|--------|----------|
E|-----------|---------|----------------------|--------|--------|----------|




You could also do it this way, which sounds lower but it's more flow-y and easier 
to play (good for acoustic)
         

         G                     C                   F
e|------------------|--------------------|---------------------------------|
B|-------0----------|--------------------|---------------------------------|
G|-------------0----|----------------0---|---------------------------------|
D|-----------0------|-------0----0-------|-----------------------------0---|
A|----2----2--------|--3-3----3----------|------0---0--3------0------3-----|
E|--3---------------|--------------------|--3-3---3-------3-3---3-3--------|



        G                     C                   F
e|------------------|--------------------|---------------------------------|
B|-------0----------|--------------------|---------------------------------|
G|-------------0----|--------------------|---------------------------------|
D|-----------0------|-------0----3-2-----|--------------------0------------|
A|----2----2--------|--3-3----3------3---|--0-----0--0-----3---------------|
E|--3---------------|------------------3-|-----3--------3------------------|



        G        C           F                  G         C          F
e|-----------|---------|----------------------|--------|--------|----------|
B|-----------|---------|----------------------|--------|--------|----------|
G|-----------|-------------------------------------------------------------|
D|-----------|---------|---------------0---------------|--2-0---|----------|
A|--2---3-------2---------0--------0-3--------|--------|--------|--3-------|
E|----3------|----3----|-------3-3------------|--3-3---|--------|----------|


There! Done.

If you wanted, you could even have one person play the first part while another plays
the second over it, and then one does rhythm for the rest of the song while the other does
the first part repetitively in the verses. That's a bit more advanced, though. If you're 
just playing on your own, you can just play this thing through.

Cool. I hope you like it!
comments
print report bad tab
I want to post or [tab]
guest
You may want to rate the tab now too:
select rating
Please do not post tabs as comments. Select "correction" instead!