Oops, an error
Loading. Please wait.

Fireflies Tab

version 8
version 8

Whole song

Interactive

52 views 1 this week
no commentswrite comment
1 2 3 4 5
3 more votes to show rating
add to favorites
launch autoscroll
font size
0
reset
how to read this tab
guitar tuner
backing track
0:00
0:00
×
Best way to learn
"Fireflies"
Autoscroll
slow
fast
+/-
esc
set tempo
stop
Author
Fireflies Intro
[Played like Sungha Jung]
Standard Tuning
Capo 3rd fret

[Intro] x2
e|------7--------3--------------------3----------------------------------------------------------------------|
B|---------------------1-------3p1h3--------------------------1---------------------------1h3----------------|
G|---0--------0--------------0--------------0---------2p0h2--------------------2p0-----0---------------------|
D|------------------0--------------------0---------3-----------------3------3--------------------------------|
A|------------------------3---------------------------------------3-----------------0------------------------|
E|-3-------3------------------------------------1------------------------1-----------------------------------|

e|------7--------3------------------1p0----------------------------------------------------------------------|
B|---------------------1-------3p1-------1---------------------------------------------1h3~~-----------------|
G|---0--------0--------------0--------------0---------2--------0--------2--------0---------------------------|
D|------------------0------------------------------3---------3-------3--------3------------------------------|
A|------------------------3----------------------------------------------------------------------------------|
E|-3-------3-----------------------------------1---------1--------1--------1--------1------------------------|



************************************

| h  Hammer-on
| p  Pull-off
| ~  Vibrato

************************************
Suggest correction
Give kudos to tab author, rate the tab!
1 2 3 4 5
comments
print report bad tab
guest
You may want to rate the tab now too:
select rating
Wanna post a correction for this tab? Suggest correction